Song name
# A B C D E F G H I J K L M N O P Q R S T U V W X Y Z

Carlos Baute - Colgado En Tus Manos tab

Capo 4

-------------2--------------------0------------------------2---|
-----------3----------------------0------------------------3---|
---------2---------------------2------------------------2------|
-------0--------------------2------------------------4---------|
---------------------------0-----------------------2-----------|
---------------------------------------------------------------|



-------------------------------------------------------------------------------------2-|
----------------------------------------------------------------------------------3----|
------------------0-----------------------------2----------------------------2---------|
---------------0----0------------------------2---2---------------------0---------------|
--------------------------------------------0------------------------------------------|
-----------3---------------------------------------------------------------------------|
Tap to rate this tab
 
# A B C D E F G H I J K L M N O P Q R S T U V W X Y Z