Song name
# A B C D E F G H I J K L M N O P Q R S T U V W X Y Z

Carlos Baute - Colgando En Tus Manos tab

Hi everybody, this isthe way I play this wonderfull song :)

Artist:   Carlos Baute Ft. Marta Sánchez
Song  :   Colgando En Tus Manos
Tuning:   EADGBe
Capo  :   4

In this video I play this song:
http://www.youtube.com/watch?v=-7_2UKr8amE
    D  A Bm  G  A
e|--2--0--2--3--0--|
B|--3--2--0--3--2--|
G|--2--2--2--0--2--|         6x
D|--0--2--0--0--2--|
A|-----0--2--x--0--|
E|-----------3-----|
   Bm F#m G  D  A7
e|--2--0--3--2--0--|
B|--0--0--3--3--2--|
G|--2--2--0--2--0--|          2x
D|--0--4--0--0--2--|
A|--2--4--x-----0--|
E|--------3--------|
    D A7 Em  G
e|--2--0--0--3--|
B|--3--2--0--3--|
G|--2--0--0--0--|             3x
D|--0--2--2--0--|
A|-----0--2--x--|
E|--------0--3--|

    D  A Bm  G  A
e|--2--0--2--3--0--|
B|--3--2--0--3--2--|
G|--2--2--2--0--2--|         2x
D|--0--2--0--0--2--|
A|-----0--2--x--0--|
E|-----------3-----|

   Bm F#m G  D  A7
e|--2--0--3--2--0--|
B|--0--0--3--3--2--|
G|--2--2--0--2--0--|          2x
D|--0--4--0--0--2--|
A|--2--4--x-----0--|
E|--------3--------|

    D A7 Em  G
e|--2--0--0--3--|
B|--3--2--0--3--|
G|--2--0--0--0--|             10x
D|--0--2--2--0--|
A|-----0--2--x--|
E|--------0--3--|

    D  A Bm  G  A
e|--2--0--2--3--0--|
B|--3--2--0--3--2--|
G|--2--2--2--0--2--|
D|--0--2--0--0--2--|
A|-----0--2--x--0--|
E|-----------3-----|

e|--2--|
B|--3--|
G|--2--|
D|--0--|
A|-----|
E|-----|
Tap to rate this tab
# A B C D E F G H I J K L M N O P Q R S T U V W X Y Z