Song name
# A B C D E F G H I J K L M N O P Q R S T U V W X Y Z

Carlos Payet - Lejania tab

Tune 6th string up to F

Andante Cantabile

   V................  III....................................
e|-5-----------------|-3-----------------|-------------3-----|
b|-------5-----------|-------3-----------|-5-----6-----------|
g|-----5-------5---5-|-----3-------3---3-|-----3-----3-----3-|
d|---7-------7---7---|---5-----3-5---5---|---5-----5-----5---|
a|---------8---------|-------------------|-3-----------------|
f|-0-----------------|-0-----------------|-------------------|

                       V.....................................
e|-------------------|-8-----------------|-5-----6-----8-----|
b|-3-----1-----------|-------8-----------|-----7-----7-----7-|
g|-----2-------2---2-|-----5-------5---5-|---5-----5-----5---|
d|---0-------0---0---|---5-------5---5---|-0-----------------|
a|-------------------|-6-------6---------|-------------------|
f|-0-------0---------|-------------------|-------------------|

   V........ III.....
e|-8-----6-----------|--------------------------|-0-----------------|
b|-----7-------3---3-|-11------10---------------|-------6-----8-----|
g|---8-------3---3---|----0-------0-------------|---0-----0-----0---|
d|-5-------5---------|------11---------11----11-|-----7-----7-----7-|
a|-------------------|--0-----------12----12----|-------------------|
f|-------------------|--------------------------|-8-----------------|


e|-------------------|-------------------|-------------------|
b|-8-----6-----------|-6-----4-----------|-4-----3-----------|
g|-----7-------7---7-|-----5-------5---5-|-----3-------3---3-|
d|---7-------7---7---|---3-------3---3---|---3-------3---3---|
a|-5-------5---------|-0-------0---------|-1-------1---------|
f|-------------------|-------------------|-------------------|


e|-------0------------|-------------------|-------0-----3-----|
b|-3-----------3------|-3-----1-----------|-1-----------------|
g|-----1-----1-----1--|-----2-------2---2-|-----3-----0-----0-|
d|---3-----3-----3----|---3-------3---3---|---2-----2-----2---|
a|-2------------------|-3-------3---------|-3-----------------|
f|--------------------|-------------------|-------------------|

   V................. III......................................
e|-5-----------------|-3-------------------|-------------3-----|
b|-------5-----------|-------3-------------|-5-----6-----------|
g|-----5-------5---5-|-----3---------3---3-|-----3-----3-----3-|
d|---7-------7---7---|---5-----3---5---5---|---5-----5-----5---|
a|---------8---------|---------------------|-3-----------------|
f|-0-----------------|-0-------------------|-------------------|

   V.........................................................
e|-8-----5-----------|-8-----5-----------|-8-----7-----5-----|
b|-----5-------5---5-|-----5-------5---5-|-----5-----5-----5-|
g|---5-------5---5---|---5-------5---5---|---5-----5-----5---|
d|---------7---------|-5-------5---------|-6-----------------|
a|-0-----------------|-------------------|-------------------|
f|-------------------|-------------------|-------------------|

                                            V.................
e|-3-----------------|-3------0-----------|-------5-----------|
b|-----0-3-----0---0-|------1-------1---1-|-8-----------8-----|
g|---0-------0---0---|----0-------0---0---|-----5-----5-----5-|
d|-3-------3---------|-2--------2---------|---5-----5-----5---|
a|-------------------|--------------------|-6-----------------|
f|-------------------|--------------------|-------------------|


e|-10-----------------|-7-----5-----------|-5------3-----2-----|
b|------0-7-----5---5-|-----4-------4---4-|------0-----0-----0-|
g|----0-------5---5---|---5-------5---5---|--------------------|
d|--0-------0---------|-0-------0---------|---0------0-----0---|
a|--------------------|-------------------|--------------------|
f|--------------------|-------------------|-2------------------|

   II................
e|-5-----3-----2-----|-3-----2-----0-----|-------------------|
b|-----4-----4-----4-|-------------------|-3-----0-----------|
g|---2-----2-----2---|-----0-----0-----0-|-----0-------0---0-|
d|-------------------|---2-----2-----2---|---0-------0---0---|
a|-2-----------------|-3-----------------|-2-------2---------|
f|-------------------|-------------------|-------------------|


e|-------0-----3----|-5-----------6-----|-7---10--------------|
b|-1----------------|-------3---3-----3-|---8-----5---0---0---|
g|-----0-----0----0-|-----5---5-----5---|-0-------------7---7-|
d|---2-----2----2---|---4---------0-----|-----------6---------|
a|-0----------------|-5-----------------|---------------------|
f|------------------|-------------------|---------------------|

                                              III................
e|-7---12-12------0-5-8-|-7------0-----------|-5-----3-----5-----|
b|---9------------------|------0-------0---0-|-------------------|
g|-7--------------------|----0-------0---0---|-----5-----5-----5-|
d|-----------9h10-------|--------------------|---3-----3-----3---|
a|---------0------------|-7--------7---------|-------------------|
f|----------------------|--------------------|-0-----------------|


e|-0-----------------|-1-----0-----1-----|-0-----------------|
b|-1-----0-----1-----|-3---3-----3-----3-|-1-----0-----1-----|
g|-0---0-----0-----0-|-2-2-----2-----2---|-2---2-----2-----2-|
d|---2-----2-----2---|-0-----------------|---2-----2-----2---|
a|-3-----------------|-------------------|-0-----------------|
f|-------------------|-------------------|-------------------|

                                          III................
e|-------0-----------|-1-----3-----1-----|-3-------3-5-6p3-4-|
b|-3-----------3-----|-----3-----3-----3-|-------5-----------|
g|-----3-----3-----3-|---0-----0-----0---|---3h5-------------|
d|---3-----3-----3---|-------------------|-------------------|
a|-1-----------------|-2-----------------|-3-----------------|
f|-------------------|-------------------|-------------------|

   V................. III.................................  
e|-5-----------------|-3-----------------|--------------3-|
b|-------5-----------|-------3-----------|-5------6-------|
g|-----5-------5---5-|-----3-------3---3-|------3-----3---|
d|---7-------7---7---|---5-----3-5---5---|----5-----5-----|
a|---------8---------|-------------------|-3--------------|
f|-0-----------------|-0-----------------|----------------|

                       V.....................................
e|-------------------|-8-----------------|-5-----6-----8-----|    
b|-3-----1-----------|-------8-----------|-----7-----7-----7-|
g|-----2-------2---2-|-----5-------5---5-|---5-----5-----5---|
d|---0-------0---0---|---5-------5---5---|-0-----------------|
a|-------------------|-6-------6---------|-------------------|
f|-0-------0---------|-------------------|-------------------|


e|-8-----6-----------|--------------------------|-0-----------------|
b|-----7-------3---3-|-11------10---------------|-------6-----8-----|
g|---8-------3---3---|----0-------0-------------|---0-----0-----0---|
d|-5-------5---------|------11---------11----11-|-----7-----7-----7-|
a|-------------------|--0-----------12----12----|-------------------|
f|-------------------|--------------------------|-8-----------------|


e|-------------------|-------------------|-------------------|
b|-8-----6-----------|-6-----4-----------|-4-----3-----------|
g|-----7-------7---7-|-----5-------5---5-|-----3-------3---3-|
d|---7-------7---7---|---3-------3---3---|---3-------3---3---|
a|-5-------5---------|-0-------0---------|-1-------1---------|
f|-------------------|-------------------|-------------------|


e|-------------------|--------------------|-------------------|
b|-3-----1-----------|-1------------------|-1-----3-----4-----|
g|-----2-------2---2-|--------3-----------|-----2-----2-----2-|
d|---0-------0---0---|----0-4-------0---0-|---1-----0-----0---|
a|-------------------|------------1---1---|-------------------|
f|-1-------1---------|-2--------2---------|-0-----------------|

  III................ V..................
e|-------------------|-------------------|-8-----------------|
b|-3-----4-----6-----|-5-----6-----8-----|-------8-----------|
g|---2-3-----3-----3-|-----5-----5-----5-|-----8-------8---8-|
d|---------5-----3---|---8-----7-----5---|---7-------7---7---|
a|-------------------|-------------------|-------------------|
f|-0-----------------|-0-----------------|-0-------0---------|

                                           V.................
e|-8-----------------|-6-----------------|-5-----------------|
b|-------6-----------|-------5-----------|-------6-----------|
g|-----7-------7---7-|-----6-------6---6-|-----5-------5---5-|
d|---6-------6---6---|---5-------5---5---|---7-------7---7---|
a|-------------------|-------------------|-------------------|
f|-0-------0---------|-0-------0---------|-0-------0---------|


e|-13--------------------------|-13------------------------|
b|----------13-----------------|----------11---------------|
g|-------13-----------13----13-|-------12---------12----12-|
d|----12-----------12----12----|----11---------11----11----|
a|-----------------------------|---------------------------|
f|--0----------0---------------|--0----------0-------------|

   X.............................................
e|-13------------------------|-------------------||
b|----------10---------------|--10---------------||
g|-------10---------10----10-|--10---------------||   Fine
d|----10---------10----10----|--10---------------||
a|---------------------------|-------------------||
f|--0----------0-------------|---0---------------||
Tap to rate this tab
# A B C D E F G H I J K L M N O P Q R S T U V W X Y Z