Guitaretab - guitar tabs
Song name
# A B C D E F G H I J K L M N O P Q R S T U V W X Y Z

Carlos Santana - This Boys Fire tab

Standard Tuning.

This is my first tab, and its not the whole song, so go easy please.

This Boy's Fire - Santana

*The hammer and pulls in these bars are done very quickly.

e|------11-11-11-11-11-12-11h12p11-9-11-|
B|-9-12---------------------------------|
G|--------------------------------------|
D|--------------------------------------|
A|--------------------------------------|
E|--------------------------------------|
[ Tab from: http://www.guitaretab.com/c/carlos-santana/102102.html ]
e|------11-11-11-11-14-12-11h12p11-9-11-|
B|-9-12---------------------------------|
G|--------------------------------------|
D|--------------------------------------|
A|--------------------------------------|
E|--------------------------------------|

e|------11-11-11-11-11-9-11-9-----------|
B|-9-12-----------------------12--------|
G|--------------------------------------|
D|--------------------------------------|
A|--------------------------------------|
E|--------------------------------------|

e|-------11-----------------------------|
B|-11-12----12-11-12-11h12p11-9-9~~-----|
G|--------------------------------------|
D|--------------------------------------|
A|--------------------------------------|
E|--------------------------------------|

e-mail me with changes or additions that can be made.
ita.romeo@yahoo.it

-Roman
Related for This Boys Fire tab
This Boys Fire chords by Carlos Santana