Song name
# A B C D E F G H I J K L M N O P Q R S T U V W X Y Z

Carlos Santana - Love Of My Life tab

Help us improve GuitareTab! Take a short survey!
i took me hella long to do this so yeah apprieciate it fool


e--------------------------|
b--------------------------|
g-0-2-3-----7-5-2----------|
d--------------------------|
a--------------------------|
e--------------------------|


e--------------------------|
b--------6-4---------------|
g-0-2-3-------2----0-2-3-5-|
d--------------------------|
a--------------------------|
e--------------------------|


e--------------------------|
b-----------------5--------|
g-10-8-3-----7-5----5-5-5--|
d--------------------------|
a--------------------------|
e--------------------------|


e--------------------------|
b--------------------------|
g-4-5-7-7------------------|
d--------------------------|
a--------------------------|
e--------------------------|


thatts it mah first time so....kick rocks if you dont like it...:D
Related for Love Of My Life tab