Guitaretab - guitar tabs
Song name
# A B C D E F G H I J K L M N O P Q R S T U V W X Y Z

Carlos Santana - Jingo tab

Santana - Jingo
-------------------------
Tabbed by: SGfreak911
Email: mikegodette@prodigy.net

Tuning: Standard

Just another great song by the master.

All you do for the intro is this

e|----12b(14)-12b(14)-12b(14)-12h14------------|
B|-12-------------------------------12-14------|
G|---------------------------------------------|
D|---------------------------------------------|
A|---------------------------------------------|
E|---------------------------------------------|

e|----12b(14)-12b(14)-12b(14)-12h14-12---------|
B|-12------------------------------------------|
G|---------------------------------------------|
D|---------------------------------------------|
A|---------------------------------------------|
E|---------------------------------------------|

e|-12-12-----------------------------|
B|-------12-15-12-12----15-12-12-----|
G|-------------------11----------11--|
D|-----------------------------------|
A|-----------------------------------|
E|-----------------------------------|

e|-------------------12--------------|
B|-15-12-12----15-12----12-15-15-12--|
G|----------11-----------------------|
D|-----------------------------------|
A|-----------------------------------|
E|-----------------------------------|

e|-----------------------------------|
B|-12---15-12-12---15-12-12--15------|
G|---11---------11---------11--------|
D|-----------------------------------|
A|-----------------------------------|
E|-----------------------------------|

e|-----------------------------------|
B|-12--------------------------------|
G|----14-11--------------------------|
D|----------14-12----12b(16)-12h14-12|
A|----------------14-----------------|
E|-----------------------------------|

e|-----------------------------------|
B|-----------------------------------|
G|-----------------------------------|
D|----------12-----------------------|
A|-12-14-14-14-----------------------|
E|-----------------------------------|

I don't really play the singing part
but if I did all i'd do is
e|-7-7-7-7-|
B|-7-7-7-7-|
G|-7-7-7-7-|
D|-9-9-9-9-|
A|---------|
E|---------|(reapeating)

Then into
e|----12b(14)-12b(14)-12b(14)-12h14------------|
B|-12-------------------------------12-14------|
G|---------------------------------------------|
D|---------------------------------------------|
A|---------------------------------------------|
E|---------------------------------------------|



e|----16b(17)-12b(14)-12------------------|
B|-12--------------------12h14------------|
G|----------------------------------------|
D|----------------------------------------|
A|----------------------------------------|
E|----------------------------------------|
[ Tab from: http://www.guitaretab.com/c/carlos-santana/118686.html ]
e|-----------------------------------|
B|13h14-13h14-13h14-13h14-13h14-14-14|
G|-----------------------------------|
D|-----------------------------------|
A|-----------------------------------|
E|-----------------------------------|

e|-----------------------------------|
B|15h14h12-15h14h12-15h14h12-15h14h12|
G|-----------------------------------|
D|-----------------------------------|
A|-----------------------------------|
E|-----------------------------------|

e|-----------------------------------|
B|15h14h12-15-15h14h12-15h14h12------|
G|-----------------------------------|
D|-----------------------------------|
A|-----------------------------------|
E|-----------------------------------|

e|-----------------------------------|
B|15h14h12-15h14h12-15h14h12---------|
G|-----------------------------------|
D|-----------------------------------|
A|-----------------------------------|
E|-----------------------------------|

e|-----------------------------------|
B|-12---12---12----12----12----12-12-|
G|----14--14----14----14----14-------|
D|-----------------------------------|
A|-----------------------------------|
E|-----------------------------------|

e|-----------------------------------|
B|------12---------------------------|
G|-14-14--14-14b(16)-14b(16)-12------|
D|------------------------------14---|
A|-----------------------------------|
E|-----------------------------------|

e|-----------------------------------|
B|15h14h12----15h14h12----15h14h12---|
G|---------14----------14----------14|
D|-----------------------------------|
A|-----------------------------------|
E|-----------------------------------|

e|-----------------------------------|
B|-15---12----12---------------------|
G|----14---14---11-9-7---7---9h11-11-|
D|---------------------9---9---------|
A|-----------------------------------|
E|-----------------------------------|

e|-----------------------------------|
B|-----------------------------------|
G|-9h11-11-9h11-11-9h11-11-9h11-11---|
D|-----------------------------------|
A|-----------------------------------|
E|-----------------------------------|

e|-----------------------------------|
B|-----------------------------------|
G|-14h16-16-14h16-16-14h16-16-14-----|
D|-------------------------------16--|
A|-----------------------------------|
E|-----------------------------------|

e|-----------------------------------|
B|-----------------------------------|
G|-----------------------------------|
D|14b(15)-------14b(16)-14b(16)-12h14|
A|---------17-14---------------------|
E|-----------------------------------|

e|-----------------------------------|
B|-----------------------------------|
G|-----------------------------------|
D|-------12--------------------------|
A|-12-14-14--------------------------|
E|-----------------------------------|
Then the outro where they say that jingo
thing. Thats all I got for ya. I hope you
enjoy it.

| b bend
| /  slide up
| \  slide down
| h  hammer-on
| p  pull-off
| ~  vibrato
| +  harmonic
| x  Mute note
Related for Jingo tab