Guitaretab - guitar tabs
Song name
# A B C D E F G H I J K L M N O P Q R S T U V W X Y Z

Carlos Santana - Well All Right tab

HERE IS WELL ALL RIGHT BY SANTANA. ENJOY!
CAWLYN


SYMBOLS
h = hammer on
p = pull off
/ = slide up

e |----------------------------------------------------------------------------------|
B |--------5h6---5---6---6h8--8----6----5--------------------------------------------|
G |------------------------------------------------7--7--7--7p5----5--7--------------|
D |------------------------------------------------------------------7---------------|
A |----------------------------------------------------------------------------------|
E |----------------------------------------------------------------------------------|   REPEAT 4 TIMES
[ Tab from: http://www.guitaretab.com/c/carlos-santana/129263.html ]
e |---------------------------------------------------------------------------------------------|
B |---------------------------------------------------------------------------------------------|
G |---------------------------------------------------------------------------------------------|
D |-------------------------------4-----------------------------------------4--5--4--2----------|
A |--5--3--5--0--3--5--5/7--5-----0--3--5--3--5--0--3--5--5/7--5--7--5--3-----------------------|
E |---------------------------------------------------------------------------------------------|

then strum G5 and let ring for 4 then strum A5 and let ring for 4

e |--------------------------|
B |--------------------------|
G |---7----5----7------------|
D |--------------------------|
A |---5----3----5------------|
E |--------------------------|

REPEAT IT ONCE FROM G5 APART FROM THE FINGER PICKING PART ARE POWER CHORDS OF D THEN C THEN D ON THE A,D+G string.

THEN DO THE POWER CHORDS AGAIN AND THEN BACK TO THE START

DURING THE SOLO DO THE POWER CHORDS D, Bb, C and the back to D

you should be able to pick up the rythm as it is quite easy
Related for Well All Right tab