Guitaretab - guitar tabs
Song name
# A B C D E F G H I J K L M N O P Q R S T U V W X Y Z

Carlos Santana - Trinity tab

|--3---7hp8p7~---7b8r7--3---3h5p3~---3--7~h10p7~--7b8r7--3---3h5p3~|
|-------------------------3--------------------------------3-------|
|------------------------------------------------------------------|
|------------------------------------------------------------------|
|------------------------------------------------------------------|
|------------------------------------------------------------------|

|--/10-10/12~--15~-15b17r15--19b20r19--15--15---------15b17r15--------------|
|---------------------------------------------15h17-----------15b17r15b17r15|
|---------------------------------------------------------------------------|
|---------------------------------------------------------------------------|
|---------------------------------------------------------------------------|
|---------------------------------------------------------------------------|

|--------------------------------------------------12\10-8\7\5-3p0-3-5------|
|-14b16r14b16r14-------------------------------12----------------------5-3-0|
|-----------------15b16r15--16b19r16-16\12----------------------------------|
|-------------------------------------------14------------------------------|
|---------------------------------------------------------------------------|
|---------------------------------------------------------------------------|

|--------------------------12h15p12~-----------3--7~h10p7--7b10r7-3---3h5p3-|
|------------------------------------12h15p12~----------------------3-------|
|-4-2-0-----------0-2-4~----------------------------------------------------|
|-------2-0---0-2-----------------------------------------------------------|
|-----------2---------------------------------------------------------------|
|---------------------------------------------------------------------------|

|---------------------------------------------------------------------------|
|---------------------------------------------------------------------------|
|------0h2-2h4-2h4-2h4-2p0-2-4--2-2-2-0-------------0-2-2-4-2-4-2-4-2-0-2-4-|
|-0h2-----------------------------------4-2-0---0-2-------------------------|
|---------------------------------------------------------------------------|
|---------------------------------------------------------------------------|

|---------------------------------------------------------------------------|
|---------------------------------------------------------------------------|
|-------------0h2-2h4-2h4-2h4-2p0-2-4-2-2-2-0------------0-2-2-4-2-4-2-4-2-0|
|2/5-5-5--0h2---------------------------------4-2-0--0-2--------------------|
|---------------------------------------------------------------------------|
|---------------------------------------------------------------------------|

|--------------|
|--------------|
|-2-4----------|
|------2/5-5-5-|
|--------------|
|--------------|
                                       10x
|-\12~--\12-10---------------------|12h15p12|~h15p12~-12h15-12-12----12-----|
|--------------12-10----10\12-12~--|--------|---------------------15----15--|
|--------------------12------------|--------|-------------------------------|
|----------------------------------|--------|-------------------------------|
|----------------------------------|--------|-------------------------------|
|----------------------------------|--------|-------------------------------|

|---------------------------15-----15-14-12-14-12----------------\17-15-12--|
|-12-12-15-12--/12/15-15h17----17-----------------15b17-15b17-12~-----------|
|---------------------------------------------------------------------------|
|---------------------------------------------------------------------------|
|---------------------------------------------------------------------------|
|---------------------------------------------------------------------------|

|----------------------------------------15-17-15----15-17-19b20-19b20-22~--|
|-\17-15-12----------------12-15-17~-/17----------17------------------------|
|-----------14-12----12-14--------------------------------------------------|
|-----------------14--------------------------------------------------------|
|---------------------------------------------------------------------------|
|---------------------------------------------------------------------------|

|-22/20-20/17-17-15----15----15-----------------------------------|
|-------------------17----17----17-15-17--------------------------|
|----------------------------------------15b17r15----15-----------|
|-------------------------------------------------17----17p14-12~-|
|-----------------------------------------------------------------|
|-----------------------------------------------------------------|

|---------------------------------------------------------------------------|
|---------------------------------------------------------------------------|
|------0h2-2h4-2h4-2h4-2p0-2-4--2-2-2-0-------------0-2-2-4-2-4-2-4-2-0-2-4-|
|-0h2-----------------------------------4-2-0---0-2-------------------------|
|---------------------------------------------------------------------------|
|---------------------------------------------------------------------------|
[ Tab from: http://www.guitaretab.com/c/carlos-santana/139859.html ]
|---------------------------------------------------------------------------|
|---------------------------------------------------------------------------|
|-------------0h2-2h4-2h4-2h4-2p0-2-4-2-2-2-0------------0-2-2-4-2-4-2-4-2-0|
|2/5-5-5--0h2---------------------------------4-2-0--0-2--------------------|
|---------------------------------------------------------------------------|
|---------------------------------------------------------------------------|

|--------------|
|--------------|
|-2-4----------|
|------2/5-5-5-|
|--------------|
|--------------|

|---------------------------------------------------------------------------|
|------------------------------------------------------------12-11b12r11h12-|
|---------------------------------------------------------------------------|
|-------------------------------------------9h12-12/14-14-14----------------|
|-------------------------------------10-12---------------------------------|
|-12\0-0-0/3-3-3/5-5-5/7-7-7/10-10-12---------------------------------------|

|-12----------11b12r11-12-12p11b12r11-12-12-11b12r11b12r11/15b17r15-17b19r17|
|----12p11-12---------------------------------------------------------------|
|---------------------------------------------------------------------------|
|---------------------------------------------------------------------------|
|---------------------------------------------------------------------------|
|---------------------------------------------------------------------------|

|-17b18r17-15-17-15-14h15p14p12h14p12----12-------------------------|
|-------------------------------------15----15p12h15p12-15p12----12-|
|-------------------------------------------------------------14----|
|-------------------------------------------------------------------|
|-------------------------------------------------------------------|
|-------------------------------------------------------------------|

|---------------------------------------------------------------------------|
|-------------------------------15p12----15p12----------------------------12|
|-14p12h14p12-14b16r14r12h14r12-------14-------14-14h16p14h16p14-12h14p12---|
|---------------------------------------------------------------------------|
|---------------------------------------------------------------------------|
|---------------------------------------------------------------------------|

|------------------------------------------------------------------------|
|----------------8-7-----------------------------------------------------|
|-/7-7-9-9-7-9-9-----9-7---7-9-9-9-7-----7-9-7-------------------7-----7-|
|------------------------9-----------9-9-------9-7---7b8r7-5/7-9---9/7---|
|--------------------------------------------------7---------------------|
|------------------------------------------------------------------------|

|--------7---12\10---17b19-17b19-17b19-17b19-17p15h17b19r17-15h17-15h17p15--|
|-8~/7\8~--8-------8--------------------------------------------------------|
|---------------------------------------------------------------------------|
|---------------------------------------------------------------------------|
|---------------------------------------------------------------------------|
|---------------------------------------------------------------------------|

|----5p3p0-|
|-17-------|
|----------|
|----------|
|----------|
|----------|

|---------------------------------------------------------------------------|
|---------------------------------------------------------------------------|
|------0h2-2h4-2h4-2h4-2p0-2-4--2-2-2-0-------------0-2-2-4-2-4-2-4-2-0-2-4-|
|-0h2-----------------------------------4-2-0---0-2-------------------------|
|---------------------------------------------------------------------------|
|---------------------------------------------------------------------------|

|---------------------------------------------------------------------------|
|---------------------------------------------------------------------------|
|-------------0h2-2h4-2h4-2h4-2p0-2-4-2-2-2-0------------0-2-2-4-2-4-2-4-2-0|
|2/5-5-5--0h2---------------------------------4-2-0--0-2--------------------|
|---------------------------------------------------------------------------|
|---------------------------------------------------------------------------|

|--------------|
|--------------|
|-2-4----------|
|------2/5-5-5-|
|--------------|
|--------------|
                                      song starts to fade here
|-3-7h8p7-7b8r7---3--3-7h10p7-7b10r7---3h5p3-5p3h5~/7p5---7p5---7p5---7p5-|
|---------------3--------------------3------------------8-----8-----8-----|
|-------------------------------------------------------------------------|
|-------------------------------------------------------------------------|
|-------------------------------------------------------------------------|
|-------------------------------------------------------------------------|

|-----------15-14-12------------------------------------------------|
|-8p7p5/17-----------15-14-12---------------------------------------|
|-----------------------------14-12-11------------------------------|
|--------------------------------------14-12-11---------------------|
|-----------------------------------------------14-12-10------------|
|--------------------------------------------------------14-12-10/0-|
The End ^_^
rate this tab please!
tab by:Caleb Stratos 
Related for Trinity tab