Guitaretab - guitar tabs
Song name
# A B C D E F G H I J K L M N O P Q R S T U V W X Y Z

Carlos Santana - Cry Baby Cry tab

==============================================
Made by FaceTaker
This must mbe something like it, let me know if you like it
==============================================
[ Tab from: http://www.guitaretab.com/c/carlos-santana/143754.html ]
E--------------------17-17--17-13-15-15--15-17-13-13-10-12-12-10-13-10-10-13----------------------------------------|
B------------------------------------------------------------------------------------------15-----------------------|
G------------------------------------------------------------------------------12-b-14-14-----14-12-12-12-p-10------|
D---------------10---------------------------------------------------------------------------------------------12---|
A------7-h-10-------------------------------------------------------------------------------------------------------|
E-------------------------------------------------------------------------------------------------------------------|

E----14-b-15---14-b-15---14-b-15---14-b-15---14-b-15-----------------------------------|
B----------------------------------------------------15-p-12---------------------------|
G------------------------------------------------------------14-p-12-------------------|
D---------------------------------------------------------------------10---------------|
A--------------------------------------------------------------------------7-----------|
E--------------------------------------------------------------------------------------|
Related for Cry Baby Cry tab
Cry Baby Cry chords by Carlos Santana