Song name
# A B C D E F G H I J K L M N O P Q R S T U V W X Y Z

Carlos Santana - Las Mananitas tab

verse 1
e--------------0------0-2-----0-2-3----3-3-2----0-----0-------0-2-3-0----|
b-----3---3-2-3---2-3-------3---------------------3-2---3-2-3---------3--|
g-2-2--------------------------------------------------------------------|
d------------------------------------------------------------------------|
a------------------------------------------------------------------------|
e------------------------------------------------------------------------|
verse 2
e-2-0-----0-2---2-0------0-2-------3---3-5-3-2-------0-2-3-0-------------|
b----3-2-3---3-----3-2-3-------3-3-------------3-2-3---------3-----------|
g------------------------------------------------------------------------|
d------------------------------------------------------------------------|
a------------------------------------------------------------------------|
e------------------------------------------------------------------------|

verse 3
e--------------------------2-0-------0-0----0----0-0---0-0---0-3-2--2-0-0-|
b---3----2-3-3--2-3-3----3-----3-2-3------2----3-----3--------------------|
g-2-----------------------------------------------------------------------|
d-------------------------------------------------------------------------|
a-------------------------------------------------------------------------|
e-------------------------------------------------------------------------|

verse 3 cont.
e---------|
b-2-3-3---|
g---------|
d---------|
a---------|
e---------|

verse 4
e----------------0-0---0-2-3---2-3-3-2-3----3-2-0---------0-2-2--2-3-2--2-0-----|
b--3-2---0-2---3----------------------------------3---2-3-------------------2-3-|
g-------------------------------------------------------------------------------|
d-------------------------------------------------------------------------------|
a-------------------------------------------------------------------------------|
e-------------------------------------------------------------------------------|
Tap to rate this tab
 
# A B C D E F G H I J K L M N O P Q R S T U V W X Y Z