Song name
# A B C D E F G H I J K L M N O P Q R S T U V W X Y Z

Carlos Santana - Maria Maria tab

This is the part everyone wants to play

Date: 27 July 2010
Artist: Santana
Title: Maria maria
Email me: kj920220@gmail.com

|------12-------------12-----12-17-12-------------12--12---|
|---------13------13------------------13------13 --13------|
|------------14--------------------------14----------------|
|----------------------------------------------------------|
|----------------------------------------------------------|
|----------------------------------------------------------|

--12-17-12-------------12-12-12-12--12-12-12 -12-12-12------|
------------13------13------13-13--13-13-13 -13-13-13-15----|
-----------------14-----------------------------------------|
------------------------------------------------------------|
------------------------------------------------------------|
------------------------------------------------------------|
Tap to rate this tab
 
# A B C D E F G H I J K L M N O P Q R S T U V W X Y Z