Carlos Santana - Oye Como Va tab

Santana - Oye Comova

tabbed by TheArrow28

E|--------------------------|
B|--------------------------|
G|--------4--5--7--4--------|
D|--7--7--------------5--7--|
A|--------------------------|
E|--------------------------|



E|--8--8---------8------------------------|
B|--------10--------10------------10--10--|
G|------------9---------9--9--11----------|
D|----------------------------------------|
A|----------------------------------------|
E|----------------------------------------|



E|--8--8---------8-------------|
B|--------10--------10---------|
G|------------9---------9--11--|
D|-----------------------------|
A|-----------------------------|
E|-----------------------------|



E|--------------------------|
B|--------5--8--5--8--7-----|
G|-----5-----------------7--|
D|--7-----------------------|
A|--------------------------|
E|--------------------------|



E|---------------------------|
B|--------5--8--5--8--7--10--|
G|-----5---------------------|
D|--7------------------------|
A|---------------------------|
E|---------------------------|



E|--8--8---------8------------------------|
B|--------10--------10------------10--10--|
G|------------9---------9--9--11----------|
D|----------------------------------------|
A|----------------------------------------|
E|----------------------------------------|



E|--8--8---------8-------------|
B|--------10--------10---------|
G|------------9---------9--11--|
D|-----------------------------|
A|-----------------------------|
E|-----------------------------|

if u find some mistakes e-mail me: thearrow28@yahoo.com
Tap to rate this tab
 
# A B C D E F G H I J K L M N O P Q R S T U V W X Y Z