Song name
# A B C D E F G H I J K L M N O P Q R S T U V W X Y Z

Carlos Santana - Twisted tab

song name:Twisted (featuring Anthony Hamilton)
Album:All That I Am (2005)
Tabbed by: ravindra
email: ravindrachangoer@msn.com

Anthony Hamilton has really a great voice and Santana as always is fantastic. I did my 
best, so hope that you like it. Please rate the tab.

symbols:
| /   slide up
| \   slide down
| h   hammer-on
| p   pull-off
| ~   vibrato
| +   harmonic
| x   Mute note
| b   Bend
| pb  Pre-bend
| br  Bend release
| pbr Pre-bend release
| brb Bend release bend

Intro 0:02

e|-------------------------------------------------------------------|
B|--------------------------------------8---8---8---8-10--13--10-10--|
G|--7b9--7b9--7-5--7--7/9--5-7/9-5---7h9-7h9-7h9--9------------------|
D|-------------------------------------------------------------------|
A|-------------------------------------------------------------------|
E|-------------------------------------------------------------------|


e|-5---------------------|
B|-5---8-----------------|
G|-5-----7--5h7p5--------|
D|-----------------7-7---|
A|-----------------------|
E|-----------------------|

I showed I'd be there
e|-----------------------|
B|-----------------------|
G|-----------------------|
D|--------12----14-------|
A|---14------------------|
E|-----------------------|

In this crazy love affar
e|-------------------------------|
B|-------------------------------|
G|--/141414--12------------------|
D|---------------14--12h14-------|
A|--------------------------12---|
E|-------------------------------|

I've been thinking
e|---------------------|
B|-13b15r13p12---------|
G|---------------14----|
D|---------------------|
A|---------------------|
E|---------------------|

you do to me
e|------------|
B|--13b15r13--|
G|------------|
D|------------|
A|------------|
E|------------|

I was too blind to see
e|---------------------|
B|---------------------|
G|-/14---/14-----------|
D|------------12-------|
A|---------------------|
E|---------------------|

my vission better
e|------------------------|
B|----12--13h15--13-------|
G|-14---------------14----|
D|------------------------|
A|------------------------|
E|------------------------|

much better
e|-5--------------|
B|-5--8-----------|
G|-------7--5-----|
D|----------------|
A|----------------|
E|----------------|

those days
e|------------------------------|
B|--------------13--15--13------|
G|-------12h14-------------14---|
D|--/14-------------------------|
A|------------------------------|
E|------------------------------|

we play
e|-----------------------|
B|--15b17--15-13---------|
G|----------------14-----|
D|-----------------------|
A|-----------------------|
E|-----------------------|

There is one thing 1:00 (play while singing)
e|------------------------------------------------------------------|
B|-------12~~-----12--13~~----13/15-15151515--13/15--13-12----------|
G|--14~~-------14------------------------------------------14-------|
D|------------------------------------------------------------------|
A|------------------------------------------------------------------|
E|------------------------------------------------------------------|

Girl you got 1:09 (play while singing)
e|--------------------------------------------------------------|
B|------12~~-----12--13~~----13b15--(15)r13--13-12--------------|
G|-14~~-------14-----------------------------------14-12--------|
D|-------------------------------------------------------14-----|
A|----------------------------------------------------------15--|
E|--------------------------------------------------------------|

Gave you my name
e|-------------------------------|
B|-13/15--15-15---13--12---------|
G|-----------------------14------|
D|-------------------------------|
A|-------------------------------|
E|-------------------------------|

through it all
e|--------------------------|
B|----------------13--------|
G|--121212--12/14-----14----|
D|--------------------------|
A|--------------------------|
E|--------------------------|

your touch
e|----------------|
B|--13-12---------|
G|----------------|
D|----------------|
A|----------------|
E|----------------|

your ways these games
e|----------------------------------|
B|-15-13-12-------------------------|
G|----------14--12------------------|
|------------------14-12-12---------|
A|----------------------------------|
E|----------------------------------|

I've gotta walk away
e|------------------|
B|--15b16--15--13---|
G|------------------|
D|------------------|
A|------------------|
E|------------------|

I've gotta leave
e|--15----------------|
B|-----15b16--15--13--|
G|--------------------|
D|--------------------|
A|--------------------|
E|--------------------|

I can find my way
e|---------------|
B|---------------|
G|--14--12h14----|
D|---------------|
A|---------------|
E|---------------|

i love you too much
e|------------------------------|
B|-------13-----15-13-----------|
G|-12h14----14--------14-14-----|
D|------------------------------|
A|------------------------------|
E|------------------------------|

There is one thing 1:59 (play while singing)
e|--------------------------------------------------------------|
B|------12~~----12--13---13b15-13b15r13p12----------------------|
G|-14~~------14----------------------------14-12h14p12----------|
D|----------------------------------------------------14--------|
A|--------------------------------------------------------------|
E|--------------------------------------------------------------|

e|--------------------------------------------|
B|------12~~----12-13~~-13b15////--13-12------|
G|-14~~------14--------------------------14---|
D|--------------------------------------------|
A|--------------------------------------------|
E|--------------------------------------------|

want you to know that
e|--------------------------------------------|
B|---------------15--13-----------------------|
G|-------12--14---------14--------------------|
D|-12/14--------------------------------------|
A|--------------------------------------------|
E|--------------------------------------------|

I pack my bags and go
e|--------------------------------------------|
B|-13b15-13-12--------------------------------|
G|-------------14-12--------------------------|
D|-------------------14-12--------------------|
A|-------------------------15-12--------------|
E|--------------------------------------------|

you got it all wrong
e|--------------------------------------------|
B|-13/15--------------------------------------|
G|-------14-----------------------------------|
D|--------------------------------------------|
A|--------------------------------------------|
E|--------------------------------------------|

got it all twisted
e|--------------------------------------------|
B|-15b17^^-1513h15p13-------------------------|
G|--------------------14-12-------------------|
D|--------------------------14-12-------------|
A|-------------------------------15-12--------|
E|--------------------------------------------|

Solo 2:34
e|-15^---15---12h15p12-----12-121212121212121212-------------|
B|----------------------15----131313131313131313--15---------|
G|---------------------------------------------------14-14\--|
D|-----------------------------------------------------------|
A|-----------------------------------------------------------|
E|-----------------------------------------------------------|

e|-15---15---15---15---15---15p12h15p12h15p12h15p12h15p12h15p12h15-15b18---|
B|15^15^--15^--15^--15^----------------------------------------------------|
G|-------------------------------------------------------------------------|
D|-------------------------------------------------------------------------|
A|-------------------------------------------------------------------------|
E|-------------------------------------------------------------------------|

e|-1212121212-----------20^-20^20^-20^-20b22r20--20-17-17------------------|
B|-1313131313-15-----------------------------------------20-18-------------|
G|---------------1414-----------------------------------------19-17--------|
D|------------------------------------------------------------------19-----|
A|-------------------------------------------------------------------------|
E|-------------------------------------------------------------------------|

e|-1717---1717----17171717-----------------------------------|
B|-1717---1717----17171717-----------------------------------|
G|-----19^----19^-----------19b22-19-17-19-------------------|
D|-----------------------------------------19-19-------------|
A|-----------------------------------------------------------|
E|-----------------------------------------------------------|


e|-20b22r20-17-17-------17-19-20-19-17-20^-20^-20^-20-20^-20^-20^-20^-----|
B|----------------17/20----------------(listen to the song for the bends)-|
G|------------------------------------------------------------------------|
D|------------------------------------------------------------------------|
A|------------------------------------------------------------------------|
E|------------------------------------------------------------------------|

e|--20-17-----------------------------|
B|--------20-17-20-18-----------------|
G|--------------------19-17h19p17-----|
D|--------------------------------19--|
A|------------------------------------|
E|------------------------------------|

But we had our connection
e|-------------------------------------------|
B|-------------------------------------------|
G|-------------------------------------------|
D|-12/14-15----14-12-------------------------|
A|----------15-------12-15-------------------|
E|-------------------------------------------|

But what I guess I was
e|--------------------------------------------|
B|-----15--13---------------------------------|
G|------------14------------------------------|
D|-14-----------------------------------------|
A|--------------------------------------------|
E|--------------------------------------------|

When she told me about love
e|-------------------------------------------|
B|-------------------------------------------|
G|-------------12-14----14-------------------|
D|-------12-14-------14----------------------|
A|-12/14-------------------------------------|
E|-------------------------------------------|

You'll get burnt
e|-------------------|
B|-------------------|
G|-------------------|
D|-------12-14-------|
A|-12/14-------------|
E|-------------------|

you live you learn
e|-------------------------|
B|-------------13-15-13----|
G|-------12-14----------14-|
D|-12/14-------------------|
A|-------------------------|
E|-------------------------|

thought that I was cheated
e|------------|
B|-/15--------|
G|-----14-----|
D|------------|
A|------------|
E|------------|

but baby not this time
e|------------|
B|-/15-13-----|
G|--------14--|
D|------------|
A|------------|
E|------------|

it's just your insecurities
e|-------12-12h15p12----12-------------------|
B|-13b15-------------15----15-13-------------|
G|-------------------------------14----------|
D|-------------------------------------------|
A|-------------------------------------------|
E|-------------------------------------------|

you drivng me away
e|----------------------------|
B|----------------------------|
G|-------14-12----------------|
D|-12/14--------14-12-14------|
A|----------------------------|
E|----------------------------|

nothing left to say
e|-------------------------------|
B|-------------------------------|
G|-12b14r12-14-------------------|
D|-------------14-12h14p12-------|
A|-------------------------15----|
E|-------------------------------|

there is one thing 3:49 (play while singing)
e|-------------------------------------------------------|
B|------12~~----12-13-13~~--13/15-151515-13/15-13-12-13--|
G|-14~~------14------------------------------------------|
D|-------------------------------------------------------|
A|-------------------------------------------------------|
E|-------------------------------------------------------|

e|--------------------------12---12---12-15b17r15p13------|
B|------12~~----12-13~~--15^--15^--15^---------------15---|
G|-14~~------14-------------------------------------------|
D|--------------------------------------------------------|
A|--------------------------------------------------------|
E|--------------------------------------------------------|

There is one thing I want you to know
e|----------------|
B|-13/15p13-------|
G|----------------|
D|----------------|
A|----------------|
E|----------------|

before I pack my bags
e|------------------------|
B|-------13----15-13------|
G|-12/14----14-------14---|
D|------------------------|
A|------------------------|
E|------------------------|

and go
e|--------------------------------------------|
B|-13/15-13-----------------------------------|
G|----------14-12--------------------12-14----|
D|----------------14-12--------12-14----------|
A|----------------------15-/15----------------|
E|--------------------------------------------|

girl
e|--------------------|
B|-------13-----------|
G|-12-14----14--------|
D|--------------------|
A|--------------------|
E|--------------------|

got it
e|-------------------------12---12---12-15b17r15p13--------|
B|-------13-15-15b17r15-15^--15^--15^---------------15-----|
G|-12-14---------------------------------------------------|
D|---------------------------------------------------------|
A|---------------------------------------------------------|
E|---------------------------------------------------------|

talk about the walk away 4:22 (play with wah)
e|-----------------------------------------------------------|
B|-----------13-12-----------15-13---------------------------|
G|-/14141414------14-/14141414-------14-/141414--12----------|
D|------------------------------------------------14---------|
A|---------------------------------------------------15------|
E|-----------------------------------------------------------|

e|---------------------------------|
B|---------------------------------|
G|-----12121212----12-14-12--------|
D|-/14----------14-----------------|
A|---------------------------15----|
E|---------------------------------|

Keep on repeating this part with a bit of your own variation and fade out.
Hope you like it. Any comments,corrections etc. please contact me. Please rate the tab
Tap to rate this tab
 
# A B C D E F G H I J K L M N O P Q R S T U V W X Y Z