Guitaretab - guitar tabs
Song name
# A B C D E F G H I J K L M N O P Q R S T U V W X Y Z

Carlos Santana - El Farol tab

this is the SONG El Farol
this is NOT what carlos is playing


---4-5-4-1-0----------------------------|
-------------3-1-0----------------------|
-------------------2-1------------------|
-----------------------3-2-0------------|
-----------------------------3-2h3-0----|
----------------------------------------|

*
--8--------------------------------8--7-----------------------------------|
-----5--5--------5--6-------------------6--6--------3--5-------5----------|
-----5--5------5-------5--5------5------7--7------4------4--4----3--3-----|
-----7--7----7---------7--7----7------5---------3--------5--5----2--2-----|
--0--------0--------5--------5-------------------------3-------2----------|
----------------------------------------------3---------------------------|


--5--------------------------0-1-5--4-1---0----------0-------0-------------|
----5--5--------1--3-------3------------------3--1h3-------1---1-----------|
----5--5------2------2--2-----------4-2---1--------------2-------2---------|
--3---------2--------3--3---------------------3--------2-----------2-------|
-------------------2-------2-------------------------0---------------------|
----------1-------------------------0---0---0------------------------------|

go back to *

[ Tab from: http://www.guitaretab.com/c/carlos-santana/272633.html ]
-----0--1---3---0------------0-----0--0------------0------------0---0-------|
--3------------------------1---1-3----------3----0---3--1-----1---1---1-----|
--2----------------------2----------------2-----------------2---------------|
--3--------------------2----------------3-----------------2-----------------|
--2--2----2---2---2--0----------------2-----------------0-------0---0-------|
-----------------------------------------------0----------------------------|
                              REPEAT


-------------------------------------------------------0--1---3---0---|
--3--0---------0--------0-----0-1---0-1-3--------3--3-----------------|
--2----1-----1----2-1-2-----2------------------2----2-----------------|
--3--------2---------------------------------3------3-----------------|
--2---------------0---0-----------0--------2--------2--2----2---2---2-|
---------0----------------0-------------------------------------------|

----------0--------|
--------1---1------|
------2-------2----|
----2-----------2--|
--0----------------|
-------------------|

go back to * to the second * then
 d u d u  d u d u  d
-0-0-0-0--0-0-0-0--0----------------5---|
-0-0-0-0--0-0-0-0--0----------------5---|
-1-1-1-1--3-3-3-3--1----------------5---|
-2-2-2-2--2-2-2-2--2----------------7---|
-2-2-2-2--2-2-2-2--2----------------7---|
-0-0-0-0--0-0-0-0--0----------------5---|
Related for El Farol tab
El Farol chords by Carlos Santana