Song name
# A B C D E F G H I J K L M N O P Q R S T U V W X Y Z

Carlos Santana - I Am Somebody tab

song: I am somebody
Artist: Santana Ft. Will-I-Am
Album: All That I Am (2005)
Tabbed by: Ravindra
E-mail: ravindrachangoer@gmail.com

************************************

| /   slide up
| \   slide down
| h   hammer-on
| p   pull-off
| ~   vibrato
| +   harmonic
| x   Mute note
| b   Bend
| pb  Pre-bend
| br  Bend release
| brp Bend release-pull-off
| pbr Pre-bend release
| brb Bend release bend

************************************

Really a nice, rythmic song from Santana Ft. Will-I-Am from BEP. Hope y'all will enjoy it.

Intro chords: Bb/F/Gm (twice)

intro
e:---------------------------------8b10-6-6-8---------|
B:-------------------1/3-----6----------------8-8-----|
G:-33-3-5-3h5p3----------5-----3----------------------|
D:-55-----------5-------------------------------------|
A:----------------------------------------------------|
E:----------------------------------------------------|

(repeat intro chords)
Live your life and just be your self cause youíre somebody
special
cause somebody loves ya
Your life so just be your self cause your somebody special
cause somebody loves ya



someone loves.....
e:---------------------------------------10-10-10-10-10------------10-------|
B:---------------3-4------------------11----13^13^13^13^13brp111313---1111--|
G:---2-3---5---5-----3----------10-12---------------------------------------|
D:-5-----5----------------10/12---------------------------------------------|
A:--------------------------------------------------------------------------|
E:--------------------------------------------------------------------------|

e:-------3---------------10-----13br<13>10h13p10----10---------------------|
B:---3-4-----------------------------------------13----11-11-13------------|
G:-5---------------10-12----------------------------------------12-12------|
D:-----------10/12---------------------------------------------------------|
A:-------------------------------------------------------------------------|
E:-------------------------------------------------------------------------|

Solo
e:--------------------------------------------------------18/20-18/20-18-h20-|
B:-------11-13-13p11-13^^---------11-11-11-13---------11---------------------|
G:-10/12--------------------10/12-------------12-12-12-----------------------|
D:---------------------------------------------------------------------------|
A:---------------------------------------------------------------------------|
E:---------------------------------------------------------------------------|

e:-18-18-17-15--20brp18-20brp18----20brp18-20-18----18-20p1820p1820p1820p18-|
B:------------------------------20---------------20-------------------------|
G:--------------------------------------------------------------------------|
D:--------------------------------------------------------------------------|
A:--------------------------------------------------------------------------|
E:--------------------------------------------------------------------------|

e:-20^/////////////-22\---|
B:------------------------|
G:------------------------|
D:------------------------|
A:------------------------|
E:------------------------|

(repeat the intro chords)
In America today, people seem they lost their way
They donít know theyíre wrong from right
Something something just aint right
Cause On TV in Magazines all I see is violent things
Killers here and killers there killers seems to be everywhere
Where did all the healers go, I donít know I donít know
Maybe all the killers killed them yo Carlos lets save the
children
Lets build their minds up & build their spines up
Teach em how to stand proud teach say it just say it loud

I am somebody, I am somebody, I am somebody,
somebody I am somebody
I am somebody, I am somebody, and you can
Be who you want to be,
go where you want to go love who you want to love - hey


during last part of chorus
e:---------------------|
B:---1/3---6-8~~~~\----|
G:-3-----5-------------|
D:---------------------|
A:---------------------|
E:---------------------|

(repeat intro chords)
Itís your life so just be your self cause youíre somebody
special
cause somebody loves ya
Your life so just be your self cause your somebody special
cause


someone loves.......
e:--------------------------------------10---10--10-10-10-10-13-10------10--|
B:---------------3-4-----------------11------13^------------------11-11-----|
G:----2-3---5--5-----3---------10-12----------------------------------------|
D:--5-----5--------------10/12----------------------------------------------|
A:--------------------------------------------------------------------------|
E:--------------------------------------------------------------------------|

e:-------3------------------10---------------|
B:---3-4-----------------11----10/11---------|
G:-5---------------10-12-------------12-12---|
D:-----------10/12---------------------------|
A:-------------------------------------------|
E:-------------------------------------------|

solo
e:----15-18-15-15~-15-18-----15-18-18b20r19b20-18-15-15------15h18p15-------|
B:-18---------------------18----------------------------18br----------18-15-|
G:--------------------------------------------------------------------------|
D:--------------------------------------------------------------------------|
A:--------------------------------------------------------------------------|
E:--------------------------------------------------------------------------|


e:----------------18-20p1820p1820p1820p1820p1820p1820p18-20^/////////////22--|
B:----------18-20------------------------------------------------------------|
G:-17br-15-------------------------------------------------------------------|
D:---------------------------------------------------------------------------|
A:---------------------------------------------------------------------------|
E:---------------------------------------------------------------------------|


(intro chords)
In America today, people call up in pain
Lets try to help them change & stop this suffering
Teach em how to stand for something donít let them stand for
nothing
Teach em how to stand proud teach say it just say it loud

I am somebody, somebody I am somebody, I am somebody,
I am somebody, & I can
Be who I want to be, go where I want to go love who I want to
love Ė
hey & you can
Be who you want to be, go where you want to go love
who you want to love Ė hey

solo
e:----15-1815h18p15----15--18-----15-18-18-17-18^-15-15---------------------|
B:-15---------------18---------15-----------------------15---------------15-|
G:---------------------------------------------------------17^r-17-15-15----|
D:--------------------------------------------------------------------------|
A:--------------------------------------------------------------------------|
E:--------------------------------------------------------------------------|

e:-20b22r20-20-18-18-20b22-20-18----18-20p1820p1820p1820p1820p1820p1820^///-|
B:-------------------------------20-----------------------------------------|
G:--------------------------------------------------------------------------|
D:--------------------------------------------------------------------------|
A:--------------------------------------------------------------------------|
E:--------------------------------------------------------------------------|

e:-22^--|
B:------|
G:------|
D:------|
A:------|
E:------|

I am somebody........
e:------------------------------------|
B:---1/3---6-------1/3---6-8~~~~~~\---|
G:-3-----5---3---3-----5--------------|
D:------------------------------------|
A:------------------------------------|
E:------------------------------------|

and you can
Be who you want to be, go where you want to go love
who you want to love Ė hey

cause someone loves.....
e:---------------------------3-6--6-3-3~~----13---------------------3-------|
B:--------------3-4------3-6--------------------13^-11-11-------3-4---------|
G:---2-3---5--5-----3--5--------------------------------------5-------------|
D:-5-----5------------------------------------------------------------------|
A:--------------------------------------------------------------------------|
E:--------------------------------------------------------------------------|

e:----------------10p8--------------|
B:-------------11------11-11-11~~---|
G:----------12----------------------|
D:-10-12-13-------------------------|
A:----------------------------------|
E:----------------------------------|

Final solo
e:-----15----15-15--15-18-20b22r20-18-18-20-20b22r20-18-18-20-------15-15---|
B:-15-----18--------------------------------------------------20-20-18^18^--|
G:-17^----------------------------------------------------------------------|
D:--------------------------------------------------------------------------|
A:--------------------------------------------------------------------------|
E:--------------------------------------------------------------------------|

e:-17-17--18-20p1820p1820p1820p1820^/////////////^^^^^-22^\-----|
B:-20^20^-21^---------------------------------------------------|
G:--------------------------------------------------------------|
D:--------------------------------------------------------------|
A:--------------------------------------------------------------|
E:--------------------------------------------------------------|

Any corrections, suggestions etc. contact me by mail!!!!!Enjoy
Tap to rate this tab
 
# A B C D E F G H I J K L M N O P Q R S T U V W X Y Z