Song name
# A B C D E F G H I J K L M N O P Q R S T U V W X Y Z

Carlos Santana - Put Your Lights On Live tab

Artist: Carlos Santana & Everlast
Song: Put your lights on [LIVE]
Album: Supernatural 
tabbed by: Ravindra 
E-mail: ravindrachangoer@gmail.com
Video: http://www.youtube.com/watch?v=9eJgTUUw4Pw

Great live version played by Carlos Santana and the band featuring Everlast. 
Really a song worth learning. I did my best so let me know how you all liked it!!!!!!!Enjoy!!!!!!

 ************************************

| /   slide up
| \   slide down
| h   hammer-on
| p   pull-off
| ~   vibrato
| +   harmonic
| x   Mute note
| b   Bend
| pb  Pre-bend
| br  Bend release
| pbr Pre-bend release
| brb Bend release bend

************************************

Intro chords Am/C/G/F/E

e:------------------------------------------------------------------------0|
B:-------13p12-10------------8-8--10----------------5---------------------1|
G:-----------------7/9-7-7h9---------7/9-\7-777-5-7---5--h7p5\4-----------2|
D:--(14)------------------------------------------------------------------2|
A:--------------------------------------------------------------------3-0-0|
E:----------------------------------------------------------------3-0------|

Hey now, all ya sinners, put your lights on,
put your lights on
Hey now
all ya lovers
put your lights on
put your lights on
Hey now

e:---------------------------|
B:-10------------------------|
G:----7/9-7----7h9-7h9-------|
D:----------10---------------|
A:---------------------------|
E:---------------------------|

All ya lovers
e:--------------------------------|
B:-/13-131313-p12-----------------|
G:----------------12----12h14-12--|
D:-------------------14-----------|
A:--------------------------------|
E:--------------------------------|

Put your lights on, put your lights on
e:-------------------------------------------|
B:------------------------------------8h10---|
G:-----121212-14-\7-\7\7-5---7/9-5-----------|
D:-/14---------------------7-------7-7-------|
A:-------------------------------------------|
E:-------------------------------------------|

Hey now
e:----------------|
B:---------8-8----|
G:-9-7-7h9--------|
D:----------------|
A:----------------|
E:----------------|

All ya killers
e:------------------------|
B:-8----------------------|
G:---10-9-10-7/9-7/9--7---|
D:------------------------|
A:------------------------|
E:------------------------|

Put your lights on, put your lights on
e:--------------------5-8-5h8p5--|
B:----------------5-8------------|
G:-9p7----------7----------------|
D:-----7-7-9-10------------------|
A:-------------------------------|
E:-------------------------------|

Hey now
e:------------|
B:-------8-8--|
G:-9-7-9------|
D:------------|
A:------------|
E:------------|

All ya children
e:---------------------------------|
B:-/13-131313-p12------------------|
G:----------------12----12h14-12---|
D:-------------------14------------|
A:---------------------------------|
E:---------------------------------|

Leave your lights on, better leave your lights on 
e:------------------------------------------|
B:------------------------------------------|
G:-----121212-14-----(light)----------------|
D:-/14-----------14p12-------12h14-12-------|
A:---------------------12-15----------1212--|
E:------------------------------------------|

Cause theres a monster
e:-5----------|
B:-8^--rp5----|
G:------------|
D:------------|
A:------------|
E:------------|

Livin under my bed
e:-5-------------------------------|
B:-5-8-5------5----5---------------|
G:-5-----7^-7---7^---5---------5---|
D:---------------------7-7-(7)-----|
A:---------------------------------|
E:---------------------------------|

Whispering in my ear
e:------------------------------|
B:-----------------10-13-10-10--|
G:--\7--------------------------|
D:------------------------------|
A:------------------------------|
E:------0000-00-----------------|

Theres an angel
e:----------------------|
B:-------13-------------|
G:-12-14----14-14--p12--|
D:----------------------|
A:----------------------|
E:----------------------|

With her hand on my head
e:-5---------------------------|
B:-5-8-5------5----5-----------|
G:-5-----7^-7---7^---5-----5---|
D:---------------------7-7-----|
A:-----------------------------|
E:-----------------------------|

She say I got nothing to fear
e|-------------------------|
B|-------------------------|
G|-----------5-7/9\7---5---|
D|-------5-7---------7-----|
A|-------------------------|
E|-00-00-------------------|

Theres a darkness
e|--10/12-15----|
B|--------------|
G|--------------|
D|--------------|
A|--------------|
E|--------------|

Living deep in my soul
e|-12-----------------------------|
B|-12-15-13-12-13-12-13-13--------|
G|-12----------------------14-14--|
D|--------------------------------|
A|--------------------------------|
E|--------------------------------|

It still got a purpose to serve
e|-----------5-------------------------|
B|----5----5---8-5------------5--------|
G|-7^---7^---------7^-5-5h7p5------5---|
D|-------------------------------7-----|
A|-------------------------------------|
E|-------------------------------------|

So let your light shine
e|-----------------------|
B|-------13--------------|
G|-12-14----14-1414-p12--|
D|-----------------------|
A|-----------------------|
E|-----------------------|

Deep into my hole
e|----------------------|
B|----------------------|
G|--------------7-------|
D|----------5-7---7p5h7-|
A|----------------------|
E|-00-00-0--------------|

God don't let me lose my nerve, don't lose my nerve
e|------------------------------|
B|------------------------------|
G|------------------------------|
D|------------------------------|
A|----(Intro towards the solo)--|
E|--00-000-0000-000-------------|

Solo ( played with wah and effects etc. listen to the song for that)

e|-8--8---9--9--3-------------------8--8---9--9---3--------------(very fast-|
B|-8--11^-9--12^3--6-6--8-6-5h6p5---8--11^-9--12^-3--66--8-6-5h6p5-with wah)|
G|-9------10----4-------------------9------10-----4----------------7^-7^-7-5|
D|-10-----11----5-------------------10-----11-----5-------------------------|
A|-10-----11----5-------------------10-----11-----5-------------------------|
E|-8------9-----3-------------------8------9------3-------------------------|

e|-------------------------------------1//////////////////-Here just pull up|
B|-----------------------5-8-5h8p5---5-1///////////////////from the 1st fret|
G|---------------------5-----------7---1///////////////////with wah, watch -|
D|-7-5-------------5-7-----------------1////////////////////the live videoto|
A|-----8-5-----5-7---------------------1///////////////////-see what i mean-|
E|---------8-5-------------------------1////////////////////-to say---------|

Keyboard solo ( by Chester Thompson )
Chords used: C/C#/G/F/E (four times)

e|--------12---12--15p12--12-17p12--12-----(very fast)----------------------|
B|-15^-15^--15^---------15--------15----1515-12-15-12h15p12----------12-----|
G|----------------------------------------------------------14-12-14----14--|
D|--------------------------------------------------------------------------|
A|--------------------------------------------------------------------------|
E|--------------------------------------------------------------------------|

e|-15^^rp12------5-----5///7///8///10///1////////////////-------------------|
B|-----------------8^^-5///7///8///10///1/////////////////---(pull up, watch|
G|------------7^-------2///3///4///6-///1//////////////////----the live ----|
D|--------------------------------------1///////////////////----video)------|
A|--------------------------------------1///////////////////----------------|
E|--------------------------------------1/////////////////////--------------|

e|----12-15-1212-------------12-15-1212-------------------|
B|-15------------15-15^^--15------------15-15^^^^^^^^^----|
G|--------------------------------------------------------|
D|--------------------------------------------------------|
A|--------------------------------------------------------|
E|--------------------------------------------------------|

Repeat intro chords

e|---------------------------------------------------------------------|
B|-----------8-8---13p12-13p12----13p12--------------------------------|
G|-7/9-7-7h9-------------------12---------/7-77-777-5-7/9-7-5h7p5------|
D|----------------------------------------------------------------7----|
A|---------------------------------------------------------------------|
E|---------------------------------------------------------------------|

Hey now
e|---------------------------|
B|----------13---------------|
G|----12-14----141414-(p12)--|
D|-14------------------------|
A|---------------------------|
E|---------------------------|

All ya sinners
e|-/7-77-7p6--------------|
B|-----------8---8h10-8---|
G|-------------9----------|
D|------------------------|
A|------------------------|
E|------------------------|

Put your lights on 
e|-----------------------|
B|-----8-8-10------------|
G|-7/9--------5h7-5h7----|
D|-----------------------|
A|-----------------------|
E|-----------------------|

Put your lights on 
e|---------------------------------|
B|----------------------13---------|
G|----------------12-14----14-14---|
D|-12h14-12h14-14------------------|
A|---------------------------------|
E|---------------------------------|

Hey now
e|-----------------------|
B|-------13--------------|
G|-12-14----14-14-(p12)--|
D|-----------------------|
A|-----------------------|
E|-----------------------|

All ya children
e|-15-13-12-13-12----------12------|
B|----------------15-13-15----15---|
G|---------------------------------|
D|---------------------------------|
A|---------------------------------|
E|---------------------------------|

Leave your lights on, leave your lights on 
e|-12-----------------------|
B|----13--------------------|
G|-------14-14--------------|
D|-------------12h14-12h14--|
A|--------------------------|
E|--------------------------|

Cause there's a monster. living under my bed
e|-----12-12121212-121212--------12-----------------------------------------|
B|-15^----15^-15^---------151515----15-12----------------------------13-----|
G|----------------------------------------12-------------------12-14----14~-|
D|-------------------------------------------14-14\12-10-12/14--------------|
A|--------------------------------------------------------------------------|
E|--------------------------------------------------------------------------|

Whispering in my ear
e|---------------------------15p12p15p1215p12-15^15^-(p12)--|
B|-15p1215p1215p1215p1215p12--------------------------------|
G|----------------------------------------------------------|
D|----------------------------------------------------------|
A|----------------------------------------------------------|
E|----------------------------------------------------------|

There's an angel
e|---------------------|
B|-------13------------|
G|-12-14----14-14(p12)-|
D|---------------------|
A|---------------------|
E|---------------------|

With her hand on my head
e|-12----------------------------------|
B|-12--15-13-12-13-12-13-13------------|
G|-12-----------------------1414(p12)--|
D|-------------------------------------|
A|-------------------------------------|
E|-------------------------------------|

She says I got nothin' to fear
e|-------------------------------------------------|
B|---------------------------------------13--------|
G|---------------------------------12-14----14\----|
D|-12h14-12h14--12h14-12h14-141414-----------------|
A|-------------------------------------------------|
E|-------------------------------------------------|

e|---------------------------------------------------------------12--h13p12-|
B|-------------------------8------------------------------------------------|
G|------------------12-12----7/9-7-5-7--9p7---------------------------------|
D|-12h14---12-12h14-------------------------77-99-1010-1212-h14-------------|
A|--------------------------------------------------------------------------|
E|--------------------------------------------------------------------------|

e|----12-1515-p12--15-12h15p12----12----12----1212-12----12-----------------|
B|-15--------------------------15----15----15---------13----13-15-13--p12---|
G|--------------------------------------------------------------------------|
D|--------------------------------------------------------------------------|
A|--------------------------------------------------------------------------|
E|--------------------------------------------------------------------------|

e|-151515-1717--------------------------------------------------|
B|-151515-1717--------------------------------------------------|
G|-121212-1414(here just press your tremolo bar several times)--|
D|--------------------------------------------------------------|
A|--------------------------------------------------------------|
E|--------------------------------------------------------------|

Tap to rate this tab
# A B C D E F G H I J K L M N O P Q R S T U V W X Y Z