Song name
# A B C D E F G H I J K L M N O P Q R S T U V W X Y Z

Carlos Santana - Sensitive Kind tab

Song: The Sentitive Kind
Artist: Carlos Santana
Album: Zebop
E-mail: ravindrachangoer@gmail.com

A very nice and meaningful song. hope y'all enjoy it

************************************

| /   slide up
| \   slide down
| h   hammer-on
| p   pull-off
| ~   vibrato
| +   harmonic
| x   Mute note
| b   Bend
| pb  Pre-bend
| br  Bend release
| pbr Pre-bend release
| brb Bend release bend

************************************

intro
Chords used: Gm/Cm/D7*/Cm
e:------------------------------------------------------------6^--6-3h6p3---|
B:------------------1/3-----6------------------8-6b8r6b8r6p3--------------6-|
G:-3-5/7-5--------------5-3---5b7r5b7--5/7-5--------------------------------|
D:---------5-p3------------------------------8------------------------------|
A:--------------5-----------------------------------------------------------|
E:--------------------------------------------------------------------------|

e:---------------|
B:---------------|
G:---5/7-5~~~----|
D:-5-------------|
A:---------------|
E:---------------|

                          Gm
Don't take her for granted, she had
           Gm
a hard time
                       Cm
Don't misunderstand her or play
            Gm
with her mind
                  Gm
Treat her so gently, it will pay you
       Cm
in time
D#7               D7
You've gotta know  she's the
              Gm
sensitive kind

(repeat the same chords & keep the same rythm)
Tell her you love her each and
every night
You will discover she will treat
you right
If you believe, I know you will find
There ain't nothin' like the
sensitive kind

Solo
Chords used: Gm/Gm/Cm/Gm/Gm/Cm/D#7-D7/Gm (repeat twice)
e:-----------------------------------------------6---6-6^-6^-6^-6^-6^-6^-6b8-|
B:-------------------------------------------6/8---8-------------------------|
G:----------------3-5b7r5b7--5^-^-3-5-----3----------------------------------|
D:-----------3-h5---------------------3/5------------------------------------|
A:-------3/5-----------------------------------------------------------------|
E:-1/3-6---------------------------------------------------------------------|

e:-6b8r6--------------------3------------------------------------------------|
B:-------6b8r6p3--6b8r6p3-6---6^-6b8r6p3--6----------------------------------|
G:------------------------------------------5br-35~p3-5~5~5~5~5p35~5~5~5p3h5-|
D:---------------------------------------------------------------------------|
A:---------------------------------------------------------------------------|
E:---------------------------------------------------------------------------|

e:-1/3-6-8-8p6-8p6-6/10~10~-13p10-13-----------------------------------------|
B:------------------------------------18^-18^18^-18^-18^18b20r18p15-18b20r18-|
G:---------------------------------------------------------------------------|
D:---------------------------------------------------------------------------|
A:---------------------------------------------------------------------------|
E:---------------------------------------------------------------------------|

e:--------18-18-------------------------------------15-----------------------|
B:p15-18^-------18^--18b20r19b20r18p15-18b20r19b20-----18-15\14--------------|
G:--------------------------------------------------------------17-15-----15-|
D:---------------------------------------------------------------------17----|
A:---------------------------------------------------------------------------|
E:---------------------------------------------------------------------------|

e:--------------------------------------------------------------------------|
B:--------------------------------------------------------------------------|
G:-17b18r17p15-17-15----15-17p15-17^-15----------15-17b18-------------------|
D:-------------------17-----------------17-17-17----------------------------|
A:--------------------------------------------------------------------------|
E:--------------------------------------------------------------------------|

e:-----------------------------------------------------------------6-88p6-8-|
B:----------------------------------------------------6b8r6b8--6/8----------|
G:-5br-3-5~5~p3-5~-5~5~-5~p3h5~5~-5~5~5p35~-5~5~-5~p3-----------------------|
D:--------------------------------------------------------------------------|
A:--------------------------------------------------------------------------|
E:--------------------------------------------------------------------------|

e:-8-68b10r9b10--8b10-r9b10----r8-------------13-----------------------------|
B:--------------------------------13-11-13-13----13b14r13p11--11-1313b14r13p-|
G:----------------------------------------------------------12---------------|
D:---------------------------------------------------------------------------|
A:---------------------------------------------------------------------------|
E:---------------------------------------------------------------------------|

e:-------------18^18^18^18^18^18b20r18p15---15------------------15----------|
B:11-13-13-11/---------------------------18----18b20r19b20r19b20---18-15\14-|
G:--------------------------------------------------------------------------|
D:--------------------------------------------------------------------------|
A:--------------------------------------------------------------------------|
E:--------------------------------------------------------------------------|

e:-------------------------------15-\----|
B:-------------------------------15-\----|
G:-17-15----15-17b18-17-15----15-15-\----|
D:-------17----------------17------------|
A:---------------------------------------|
E:---------------------------------------|

( again repeat the same chords)
She gets so lonely waitin' for you
You are the only thing to help
her through
Don't take her for granted
She has a hard time
You got to know she's the
sensitive kind
You got to know she's the
sensitive kind

chords used
   Gm    Cm    D7*   D7    D#7
e:-3-----3-----5----------------|
B:-3-----4-----7-----3-----4----|
G:-3-----5-----5-----5-----6----|
D:-5-----5-----7-----4-----5----|
A:-5-----3-----5-----5-----6----|
E:-3----------------------------|

Thats it. any corrections, suggestions, questions etc.......plz do contact me.
Tap to rate this tab
# A B C D E F G H I J K L M N O P Q R S T U V W X Y Z