Song name
# A B C D E F G H I J K L M N O P Q R S T U V W X Y Z

Carlos Santana - Sideways tab

                                  ~~~~~~~~~~~~~~~~~~~~~~~~~~~~~~~~~~~~~~~~
                                                  Sideways
                                               Carlos Santana
                                      The Clarence Greenwood Recordings
                                  ~~~~~~~~~~~~~~~~~~~~~~~~~~~~~~~~~~~~~~~~
Tabbed by: Connor O.
Tuning: Standard



Very chill song by Citizen Cope from The Clarence Greenwood Recordings album. This 
tab will focus on the fills played by Carlos Santana throughout the song.

Time signatures are included for each fill. I'll also include the lyrics for time
reference purposes. Since the singing and guitar is call and response and not in 
parallel, I'll place the lyrics that were sung before the lick above it. For 
example, at 0:21 seconds the lyrics come before the lick but I place them above
the lick's box. 

Some of the licks can be played at different locations on the fretboard. This is
just how it's easiest for me to play. All of the notes are right, anyways.



Comment with ideas/corrections.

Please rate my tab


Key:
where # represents a fret number

#h# - hammer
#p# - pull
/ \ - slides, up and down respectively.
#b# - bend from normal note up to achieve bended note.
#r# - release bend from bended note to normal note.
pb# - bend that note up, either half-step or 
      whole step then pick and release to normal note.
~   - hold note
x   - palm mute



Intro

  0:03

e|-12-----------------------------|
B|----10b12-10-8-10-8h10-10---12--|
G|--------------------------------|
D|--------------------------------|
A|--------------------------------|
E|--------------------------------|


  0:07

e|----12-15-12-15b17-15b17-15-----|
B|-15-----------------------------|
G|--------------------------------|
D|--------------------------------|
A|--------------------------------|
E|--------------------------------|



Verse:


  0:11

e|-12-----------------------------|
B|----12p10-10-8---10---8---------|
G|---------------9----9-----------|
D|--------------------------------|
A|--------------------------------|
E|--------------------------------|


  0:13

e|--------------------------------|
B|-10b12r10p8-10-8----------------|
G|--------------------------------|
D|--------------------------------|
A|--------------------------------|
E|--------------------------------|


  0:15

e|--------------------------------|
B|--------------------------------|
G|-9-7----------------------------|
D|-----7h9p7-5-7-5----------------|
A|--------------------------------|
E|--------------------------------|


  0:21
  You know it ain't easy
e|--------------------------------|
B|-10b12-10-8---10-8--------------|
G|------------9-------------------|
D|--------------------------------|
A|--------------------------------|
E|--------------------------------|


  0:26
  For these thoughts here to leave me
e|--------------------------------|
B|-10b12-10-8-10-8----------------|
G|--------------------------------|
D|--------------------------------|
A|--------------------------------|
E|--------------------------------|


  0:30
  There's no words to describe it
e|--------------------------------|
B|-10b12-10-8---10-8--------------|
G|------------9-------------------|
D|--------------------------------|
A|--------------------------------|
E|--------------------------------|


  0:34
  In French or in English
e|--------------------------------------|
B|---8-10-10b12-10-8---10b12-10-8--h10--|
G|-9-----------------9------------------|
D|--------------------------------------|
A|--------------------------------------|
E|--------------------------------------|


  0:38
  'Cause diamonds egg fate
e|--------------------------------|
B|-15b17~r15p12-------------------|
G|--------------------------------|
D|--------------------------------|
A|--------------------------------|
E|--------------------------------|


  0:43
  And flowers they bloom
e|--------15----------------------|
B|-15b17x----15b17r15b17----------|
G|--------------------------------|
D|--------------------------------|
A|--------------------------------|
E|--------------------------------|


  0:48
  And I'm tellin' you
e|-17bx-17-15----15-17-pb17p15----|
B|------------15------------------|
G|--------------------------------|
D|--------------------------------|
A|--------------------------------|
E|--------------------------------|


  0:53
  These feelings won't go away
e|--------------------------------|
B|-10b12--------------------------|
G|--------------------------------|
D|--------------------------------|
A|--------------------------------|
E|--------------------------------|


  0:57
  They've been knockin' me sideways
e|--------------------------------|
B|-10b12~r10b12~r10b12------------|
G|--------------------------------|
D|--------------------------------|
A|--------------------------------|
E|--------------------------------|


  1:01
  They've been knockin' me out there
e|-12-10--------------------------|
B|-12----10b12-10-10-8---h10------|
G|--------------------------------|
D|--------------------------------|
A|--------------------------------|
E|--------------------------------|


  1:07
  Whenever you come around babe
e|-7h8-7--------------------------|
B|-------8------------------------|
G|---------9----------------------|
D|-----------9-7------------------|
A|--------------------------------|
E|--------------------------------|


  1:10
  These feelings won't go away
e|--------------------------------|
B|-15b17~r15p12-------------------|
G|--------------------------------|
D|--------------------------------|
A|--------------------------------|
E|--------------------------------|


  1:14
  They've been knockin' me sideways
e|--------------------------------|
B|-15b17~r15p12-------------------|
G|--------------------------------|
D|--------------------------------|
A|--------------------------------|
E|--------------------------------|


  1:18
  I keep thinkin' in a moment that
e|-17bx-17-15----15-17-pb17p15----|
B|------------15------------------|
G|--------------------------------|
D|--------------------------------|
A|--------------------------------|
E|--------------------------------|


  1:22
  Time'll take them away
e|-7h8---7-8-7--------------------|
B|--------------------------------|
G|--------------------------------|
D|--------------------------------|
A|--------------------------------|
E|--------------------------------|


  1:27
  But these feelings won't go away
e|--------------------------------|
B|-10b12-10-8-10-8--8--8--h10-----|
G|--------------------------------|
D|--------------------------------|
A|--------------------------------|
E|--------------------------------|


  1:37
  These feelings won't go away
e|------------------------------------------------------|
B|---8-10b12---10b12---10b12---10b12-10b12---8----------|
G|-9---------------------------------------9---9--------|
D|-----------------------------------------------5-5h7--|
A|------------------------------------------------------|
E|------------------------------------------------------|


  1:47
  It ain't easy
e|--------------------------------|
B|-10b12-10-8---10-8--------------|
G|------------9-------------------|
D|--------------------------------|
A|--------------------------------|
E|--------------------------------|

 
  1:52
  For these thoughts here to leave me
e|--------------------------------|
B|-10b12-10-8-10-8----------------|
G|--------------------------------|
D|--------------------------------|
A|--------------------------------|
E|--------------------------------|


  1:56
  There's no words to describe it
e|--------------------------------|
B|-10b12-10-8---10-8--------------|
G|------------9-------------------|
D|--------------------------------|
A|--------------------------------|
E|--------------------------------|


  2:00
  In French or in English
e|--------------------------------|
B|-8-10-8-10-12-10vp8-------------|
G|--------------------------------|
D|--------------------------------|
A|--------------------------------|
E|--------------------------------|


  2:04
  'Cause diamonds egg fate
e|--------15----------------------|
B|-15b17x----15b17r15b17----------|
G|--------------------------------|
D|--------------------------------|
A|--------------------------------|
E|--------------------------------|


  2:09
  And flowers they bloom
e|-17bx-17-15----15-17-pb17p15----|
B|------------15------------------|
G|--------------------------------|
D|--------------------------------|
A|--------------------------------|
E|--------------------------------|


  2:15
  And I'm tellin' you
e|---8-7--------------------------|
B|-------8------------------------|
G|---------9----------------------|
D|-----------9-7------------------|
A|--------------------------------|
E|--------------------------------|


  2:18
  These feelings won't go away
e|--------------------------------|
B|-10b12--------------------------|
G|--------------------------------|
D|--------------------------------|
A|--------------------------------|
E|--------------------------------|


  2:23
  They've been knockin' me sideways
e|--------------------------------|
B|-10b12~r10b12-------------------|
G|--------------------------------|
D|--------------------------------|
A|--------------------------------|
E|--------------------------------|


  2:27
  They've been knockin' me out there
e|-12-10--------------------------|
B|-12----10b12-10-10-8---h10------|
G|--------------------------------|
D|--------------------------------|
A|--------------------------------|
E|--------------------------------|


  2:32
  Whenever you come around babe
e|-7h8-7--------------------------|
B|-------8------------------------|
G|---------9----------------------|
D|-----------9-7------------------|
A|--------------------------------|
E|--------------------------------|


  2:35
  But these feelings won't go away
e|--------------------------------|
B|-15b17~r15p12-------------------|
G|--------------------------------|
D|--------------------------------|
A|--------------------------------|
E|--------------------------------|


  2:40
  They've been knockin' me sideways
e|--------15----------------------|
B|-15b17x----15b17r15b17----------|
G|--------------------------------|
D|--------------------------------|
A|--------------------------------|
E|--------------------------------|


  2:40
  I keep thinkin' in a moment that
e|-17bx-17-15----15-17-pb17p15----|
B|------------15------------------|
G|--------------------------------|
D|--------------------------------|
A|--------------------------------|
E|--------------------------------|


  2:47
  Time'll take them away
e|-7h8---7-8-7--------------------|
B|--------------------------------|
G|--------------------------------|
D|--------------------------------|
A|--------------------------------|
E|--------------------------------|


  2:51
  But these feelings won't go away
e|---------------------------------------------------|
B|---8-10-8-10v-8-10v-8------10-8-10v-8-10v-8-10v-8--|
G|-9-------------------------------------------------|
D|---------------------------------------------------|
A|---------------------------------------------------|
E|---------------------------------------------------|


  2:55
  They've been knockin' me sideways
e|-7-------------------------------------------------|
B|-----8v---8v---8v----------8---8v---8v-------------|
G|---9----9----9----9----9-----9----9----9-----------|
D|---------------------------------------------------|
A|---------------------------------------------------|
E|---------------------------------------------------|


  3:00
  I keep thinkin' in a moment that
e|-10------------------------------------------------|
B|----10b12-10-8-10-8-10b12r10p8-(h10p8---)----------|
G|-------------------------------(------9-)----------|
D|---------------------------------------------------|
A|---------------------------------------------------|
E|---------------------------------------------------|
                               *ghost notes*
  don't play with pick, just play them softly with fretting hand

  3:03
  Time'll take them away
e|-7h8---7-8-7--------------------|
B|--------------------------------|
G|--------------------------------|
D|--------------------------------|
A|--------------------------------|
E|--------------------------------|


  3:09
  These feelings won't go away
e|--------------------------------|
B|-10b12--------------------------|
G|--------------------------------|
D|--------------------------------|
A|--------------------------------|
E|--------------------------------|


  3:18
  These feelings won't go away
e|-12-10--------------------------|
B|-12----10b12-10-8-10-8-8~h10----|
G|--------------------------------|
D|--------------------------------|
A|--------------------------------|
E|--------------------------------|


  3:25
  But diamonds they fade
e|--------------------------------|
B|-15b17~r15p12-------------------|
G|--------------------------------|
D|--------------------------------|
A|--------------------------------|
E|--------------------------------|


  3:29
  And flowers they bloom
e|--------15----------------------|
B|-15b17x----15b17r15b17----------|
G|--------------------------------|
D|--------------------------------|
A|--------------------------------|
E|--------------------------------|


  3:33
  And I'm tellin' you
e|-12-10-9--9-8--8-7--------------|
B|-12-----------------pb10p8h10---|
G|--------------------------------|
D|--------------------------------|
A|--------------------------------|
E|--------------------------------|


  3:39
  Yeah I'm tellin' you
e|-------------------------------12-|
B|-------------------------12-15----|
G|-------------------12-14----------|
D|-------------12-14----------------|
A|-------12-14----------------------|
E|-12-15----------------------------|


  3:42
  That diamonds egg fate
e|-------12-------12-----12-----12-----12---------------------------|
B|------------------------------------------------------------------|
G|-14b16-----14b16--14b16--14b16--14b16--14b16-14-12-14-12-12~h14---|
D|------------------------------------------------------------------|
A|------------------------------------------------------------------|
E|------------------------------------------------------------------|


  3:46
  And flowers they bloom
e|-------12-------12-----12-----12-----12---------------------------|
B|------------------------------------------------------------------|
G|-14b16-----14b16--14b16--14b16--14b16--14b16-14-12-14-12-12~h14---|
D|------------------------------------------------------------------|
A|------------------------------------------------------------------|
E|------------------------------------------------------------------|


  3:51
  And I'm tellin' you
e|-17b19-17-15----17b19-17-15-----|
B|--------------------------------|
G|--------------------------------|
D|--------------------------------| X2
A|--------------------------------|
E|--------------------------------|


  3:57
  These feelings won't go away
e|-15-15-15-12----15-12-----------|
B|-------------15---------15------|
G|--------------------------------|
D|--------------------------------|
A|--------------------------------|
E|--------------------------------|


  4:00
  They've been knockin' me sideways
e|-15-15-15-12----15---------12---|
B|-------------15----15---15----15|
G|--------------------------------|
D|--------------------------------|
A|--------------------------------|
E|--------------------------------|


  4:05
  They've been knockin' me out there
e|-15-15-15-15-15-15-15\11-11-11--|
B|--------------------------------|
G|--------------------------------|
D|--------------------------------|
A|--------------------------------|
E|--------------------------------|


  4:10
  Whenever you come around babe
e|-15-15-15-12-------12-15-15p12----12----12h15-12----12----------------------------------|
B|-------------15b17-------------15----15----------15----15-15p12----12-------12-15-12----|
G|----------------------------------------------------------------14----14b16----------14-|
D|----------------------------------------------------------------------------------------|
A|----------------------------------------------------------------------------------------|
E|----------------------------------------------------------------------------------------|


  4:13
  These feelings won't go away
e|-15-15-15-12----15-12-----------|
B|-------------15---------15------|
G|--------------------------------|
D|--------------------------------|
A|--------------------------------|
E|--------------------------------|


  4:17
  They've been knockin' me sideways
e|-15-15-15-12----15---------12---|
B|-------------15----15---15----15|
G|--------------------------------|
D|--------------------------------|
A|--------------------------------|
E|--------------------------------|


  4:21
  They've been knockin' me out there
e|-15-15-15-15-15-15-15\11-11-11--|
B|--------------------------------|
G|--------------------------------|
D|--------------------------------|
A|--------------------------------|
E|--------------------------------|


  4:25
  Time'll take them away
e|-pb17p15------15-17b19-17b19-17b19-|
B|-----------17----------------------|
G|-----------------------------------|
D|-----------------------------------|
A|-----------------------------------|
E|-----------------------------------|


  4:49

e|-------12-15-15p12----12-----------|
B|-15b17-------------15----15-15-12--|
G|-----------------------------------|
D|-----------------------------------|
A|-----------------------------------|
E|-----------------------------------|



These feelings won't go away
They've been knockin' me sideways
Tap to rate this tab
# A B C D E F G H I J K L M N O P Q R S T U V W X Y Z