Song name
# A B C D E F G H I J K L M N O P Q R S T U V W X Y Z

Carlos Santana - I Dont Wanna Lose Your Love tab

          I Don't Wanna Lose Your Love (H. Garza, J. Garza, R. Garza)
                        Carlos Santana/Los Lonely Boys

Intro (Henry Garza):
|-------4---------------------------------------|
|-4h5-----------------------------9--7-7--5-x-5-|
|-----6----6-6--6----2h4p2----8-----------------|
|-----------------4--------4----9---------------|
|-4---------------------------------------4-x-4-|
|----------5-5----------------7------9-9--------|

Intro Solo (Carlos Santana):
|-9-----------|-------------------------------7------------------------------|
|-------------|-7h9----7------------------------7h9----7---------------------|
|---11b13--11-|----------9-8-9---8----6/9---9------------9-8-9---8---p6h8--6-|
|-------------|----------------6-------------------------------6-------------|
|-------------|--------------------------------------------------------------|
|-------------|--------------------------------------------------------------|
Tap to rate this tab
 
# A B C D E F G H I J K L M N O P Q R S T U V W X Y Z