Guitaretab - guitar tabs
Song name
# A B C D E F G H I J K L M N O P Q R S T U V W X Y Z

Carlos Santana - Singing Winds Crying Beasts tab

                    *Singing Winds, Crying Beasts (Micheal Carabello)*

Intro (Where the Guitar comes in):
 (00:42)
|---------------------------------------------------------------------------|
|-13b15------15b13-10-(feedback)------------------12-h13--14-13b15b13p12----|
|----------------------------------------12h14---------------------------14-|
|---------------------------3p2-0-------------------------------------------|
|---------------------------------------------------------------------------|
|---------------------------------------------------------------------------|

|----------------------------------------------------------|
|--------------------------13b15~--15b13-------13b15b13-10-|
|-12--14-----12--14h15p14----------------14----------------|
|----------------------------------------------------------|
|----------------------------------------------------------|
|----------------------------------------------------------|

|--------------------------------------------------------------------|
|-10----------10----------10-12--10h12p10----------------------------|
|-----12--10------12--10------------------10h12----------------------|
|-------------------------------------------------10h12-(feedback)\--|
|--------------------------------------------------------------------|
|--------------------------------------------------------------------|
[ Tab from: http://www.guitaretab.com/c/carlos-santana/69995.html ]
 (01:53)  (02:58)
|--------|----------------------------15-15-15-15-13-13-13-13-------|
|--------|-13b15-15-15-15-15-15-15-15-------------------------15-15-|
|--------|----------------------------------------------------------|
|-3p2-0--|----------------------------------------------------------|
|--------|----------------------------------------------------------|
|--------|----------------------------------------------------------|

 Guitar I
|-18b20-20-20-20----------18b20-20-20-20-20--|
|--------------------------------------------|
|--------------------------------------------|
|--------------------------------------------|
|--------------------------------------------|
|--------------------------------------------|
|                                            |
|                                            |
|Guitar II                                   |
|------------13b15--10h13p10-----------------|
|--------------------------------------------|
|--------------------------------------------|
|--------------------------------------------|
|--------------------------------------------|
|--------------------------------------------|

 (03:57)
|-----------------------15b17---------------|
|-13b15-15~(feedback)-----------------------|
|-------------------------------------------|
|-------------------------------------------|
|-------------------------------------------|
|-------------------------------------------|
Related for Singing Winds Crying Beasts tab
Advertisement will be closed in 10 seconds