Song name
# A B C D E F G H I J K L M N O P Q R S T U V W X Y Z

Carlos Santana - Soul Sacrifice Live tab

Song Title: Soul Sacrifice
Artist/Band: Santana
Album: Sacred Fire - Live in South America, 1993

Tab by JC Rea(jcrp_21@hotmail.com)

Symbols:

h=hammer-on
p=pull-off
/=slide-up
\=slide-down
b=bend
r=release bend
[]=bend before picking
~=left hand vibrato
///=tremolo picking
()=let ring
Tr=Trill
x=Blocked string

Tuning:Standard

e|---------------------------S-|
B|-(5)---0--(5)---0--(5)---P-L-|
G|-(7)---0--(7)---0--(7)---I-I-|
D|-------0--------0--------C-D-|
A|-------------------------K-E-|
E|-----------------------------|
   00:32


Then:

e|-5-5-5-----------5-|-5-5-5-----------5-|
B|-5-5-5---5-7-5---5-|-5-5-5---5-7-5---5-|
G|-5-5-5---5-7-5---5-|-5-5-5---5-7-5---5-|
D|-7-7-7---5-7-5---7-|-7-7-7---5-7-5---7-|
A|-------------------|-------------------|
E|-------------------|-------------------|
  0:42

e|-5--5-----------------------------------|
B|-5--5---5--7---5-5----------------------|
G|-5--5---5--7---5-5---7p5----------------|
D|-7--7---5--7---5-5-------7--5h7-5h7-5h7-|
A|----------------------------------------|
E|----------------------------------------|
  0:49

e|-------------------------|---------------5-----------|
B|-5-5--8p5-7---5-5--------|---5-5--8p5-7----5-5-------|
G|------------------5---5--|-7-------------------5---5-|
D|--------------------7----|-----------------------7---|
A|-------------------------|---------------------------|
E|-------------------------|---------------------------|
  0:55

e|---8-8-8--8p5--8p5-----------|---8-8-8--8p5-----5--5h8p5h8-|
B|-5---------------------------|-5------------5h8------------|
G|--------------------7b9r7p5--|-----------------------------|
D|-----------------------------|-----------------------------|
A|-----------------------------|-----------------------------|
E|-----------------------------|-----------------------------|
  1:02

e|-8h12p8-------8p5-5----|-8h12--8h12p8---5--8p5-5---|
B|---------5h8---------8-|--------------8----------8-|
G|-----------------------|---------------------------|
D|-----------------------|---------------------------|
A|-----------------------|---------------------------|
E|-----------------------|---------------------------|
  1:09


e|-12h17p12h17p12---15p12------------|-12h17p12h17p12----17p15p12------------|
B|------------------------15h17--13--|----------------------------15h17--13\-|
G|-----------------------------------|---------------------------------------|
D|-----------------------------------|---------------------------------------|
A|-----------------------------------|---------------------------------------|
E|-----------------------------------|---------------------------------------|
  1:16

e|-----------------------------|-----------------------------------|
B|-10-8-10--10p8---------------|-------10-8-10--10p8---------------|
G|---------------9p7/5h7p5-----|-5h7h9---------------9p7\5h7p5-----|
D|-------------------------7-7-|-------------------------------7-7-|
A|-----------------------------|-----------------------------------|
E|-----------------------------|-----------------------------------|
  1:23

e|-------------------------------|-----------------------------------|
B|-------10-8-10--10p8-----------|-------10-8-10--10p8---------------|
G|-5h7h9---------------9-5-7-----|-5h7h9---------------9p7\5h7p5-----|
D|---------------------------7-7-|-------------------------------7-7-|
A|-------------------------------|-----------------------------------|
E|-------------------------------|-----------------------------------|
  1:30

e|----------------10-12-12---10-12--12-12--12-12-12-|
B|---10h12-10--13-----------------------------------|
G|-9------------------------------------------------|
D|--------------------------------------------------|
A|--------------------------------------------------|
E|--------------------------------------------------|
  1:36

e|------------------------10--12-12--10-12--10\-|
B|---10h12--10h12--10--13-----------------------|
G|-9--------------------------------------------|
D|----------------------------------------------|
A|----------------------------------------------|
E|----------------------------------------------|
  1:40
  
e|--------------------------------------------------|
B|------13/15\--------------------------------13h15-|
G|--------------12h14---14p12h14p12h14p12h14--------|
D|--------------------------------------------------|
A|-/12----------------------------------------------|
E|--------------------------------------------------|
  1:43

e|-15b17--15b(17)---15-17-15-13--12~~~------------------|
B|--------------------------------------15-12--12\10/12-|
G|------------------------------------------------------|
D|------------------------------------------------------|
A|------------------------------------------------------|
E|------------------------------------------------------|
  1:47

e|------------------------------------------------|
B|-13-12h13----13--10--13-13--10----10----10\8h10-|
G|----------14-------------------12----12---------|
D|------------------------------------------------|
A|------------------------------------------------|
E|------------------------------------------------|
  1:51

e|-----------------------------------------------|
B|-5--5--7-----5--5--7-----5--5--7-----7--5----5-|
G|-5--5--7-----5--5--7-----5--5--7-----7--5----5-|
D|-7--5--7-----7--5--7-----7--5--7-----7--5----7-|
A|-7-----------7-----------7-------------------7-|
E|-----------------------------------------------|
  1:57

e|-----------------------------------------------|
B|-5--5--7-----5--5--7-----5--5--7-----7--5----5-|
G|-5--5--7-----5--5--7-----5--5--7-----7--5----5-|
D|-7--5--7-----7--5--7-----7--5--7-----7--5----7-|
A|-7-----------7-----------7-------------------7-|
E|-----------------------------------------------|
  2:04


Lyrics:


"A love supreme
 a love supreme, 
 a love supreme, 
 supreme, supreme"(x4)

Then:


e|-12-8-----------------|-------15-------15-------15-------------|
B|------10-10-10-10~~~--|-15h17----15/17----15/17----14~~~p12h14-|
G|----------------------|----------------------------------------|
D|----------------------|----------------------------------------|
A|----------------------|----------------------------------------|
E|----------------------|----------------------------------------|
  2:38

e|------------------------------------------------------------------------------------|
B|----10-12-13p12p10-----10-12-13p12p10------10-12-13p12p10--12-13p12p10--12-13p12p10-|
G|-12-----------------12------------------12------------------------------------------|
D|------------------------------------------------------------------------------------|
A|------------------------------------------------------------------------------------|
E|------------------------------------------------------------------------------------|
  2:48

e|-------------------------------------------------------------------------------------12-|
B|----10-12-13p12p10--12-13p12----12-13p12h13p12-----12-13p12h13p12-----12-13p12-13h15----|
G|-12--------------------------14-----------------14-----------------14-------------------|
D|----------------------------------------------------------------------------------------|
A|----------------------------------------------------------------------------------------|
E|----------------------------------------------------------------------------------------|
  2:51

e|-12-12-12-12-12-12---12-14----12\-----17\-|
B|---------------------------15-------------|
G|------------------------------------------|
D|------------------------------------------|
A|------------------------------------------|
E|------------------------------------------|
  2:55

e|-////12---12-12h14--12h14----------|
B|--------------------------13-------|
G|-----------------------------12h14-|
D|-----------------------------------|
A|-----------------------------------|
E|-----------------------------------|
  2:59
 
e|---------------------------------------------------------------------|
B|-10--10/12-10/12-10/12-10/12-10/12-10/12-10/12-10/12--12-12p10-------|
G|---------------------------------------------------------------12-11-|
D|---------------------------------------------------------------------|
A|---------------------------------------------------------------------|
E|---------------------------------------------------------------------|
  3:02

e|----------------------------|
B|-12--10-12-13-12-10-10------|
G|-----------------------12-9-|
D|----------------------------|
A|----------------------------|
E|----------------------------|
  3:06

e|-10--------------------------------------------------------------------|
B|----13p12----13p12-13p12---10-10-12-13-10h12-10-12-----------------10\-|
G|---------------------------------------------------12-9-11p9h11h12-----|
D|-----------------------------------------------------------------------|
A|-----------------------------------------------------------------------|
E|-----------------------------------------------------------------------|
  3:12

e|----------------------------------|--------------------------------------|
B|---------7-------8-------7--------|---------7------8-10-8----------------|
G|-9------------9----9-------9------|-9------------9--------9p7------------|
D|---10-7----10--------10------10-7-|---10-7----10--------------10--10p9p7-|
A|----------------------------------|--------------------------------------|
E|----------------------------------|--------------------------------------|
  3:19
 
e|----------------------------------|---------------------|
B|---------7------8--------7--------|----------10h12p(10)-|
G|-9------------9---9--------9------|-9-------------------|
D|---10-7----10-------10-------10-7-|---10----------------|
A|----------------------------------|------12-------------|
E|----------------------------------|---------------------|
  3:26

e|----------------------------------------------------|
B|----10-12-13-12h13p12p10----10----12h13p12p10----10-|
G|-12----------------------12----12-------------12----|
D|----------------------------------------------------|
A|----------------------------------------------------|
E|----------------------------------------------------|
  3:32

e|----------------------------|
B|-5-8--7h8p9p5---------------|
G|--------------7b9---7h9~~~\-|
D|----------------------------|
A|----------------------------|
E|----------------------------|
  3:36

e|------------------------------|
B|----10-12--13--12h13p12p10----|
G|-12------------------------12-|
D|------------------------------|
A|------------------------------|
E|------------------------------|
  3:39

e|--------------------------|
B|-7h8p7--------------------|
G|-------9-7-----7h9p7------|
D|---------------------10-7-|
A|--------------------------|
E|--------------------------|
  3:43

e|-----------------------|--------------------------|
B|-----------------------|-8b10--8b10--8b10--10r8p5-|
G|-7b9--7b9--7b9--9r7p5--|--------------------------|
D|-----------------------|--------------------------|
A|-----------------------|--------------------------|
E|-----------------------|--------------------------|
  3:46

e|---------------------------------------------------|
B|---------------------------10h12p10--10p7----------|
G|-7b9--7b9--7b-9--9r7p5---9----------------9p7------|
D|----------------------------------------------10p7-|
A|---------------------------------------------------|
E|---------------------------------------------------|
  3:50

e|--------------------7---7--------////10----////12----////15\-|
B|-5-7---5-7---5-7--8-----x--------////-x----////-x----////-x--|
G|-5-7---5-7---5-7--------4--4-----////-7----////-9----////12--|
D|-5-7---5-7---5-7---------------------------------------------|
A|-------------------------------------------------------------|
E|-------------------------------------------------------------|
  3:53

e|-17--20b22--22--22~22~22~--22--17--22~22~--17--22~22~--22~22~-|
B|--------------------------------------------------------------|
G|--------------------------------------------------------------|
D|--------------------------------------------------------------|
A|--------------------------------------------------------------|
E|--------------------------------------------------------------|
 4:00

e|-[20]b22r20----17-20-17--------------------|
B|------------------------20-17--15b17r15----|
G|----------------------------------------14-|
D|-------------------------------------------|
A|-------------------------------------------|
E|-------------------------------------------|
  4:03

e|-------12---------12-12-12-12----------12----|
B|----15------15b17-------------15b17-15----14-|
G|-14------------------------------------------|
D|---------------------------------------------|
A|---------------------------------------------|
E|---------------------------------------------|


        Tr~~~~ 
e|-15p12------////15---19p15------19p15----|
B|---------------------------17---------17-|
G|-----------------------------------------|
D|-----------------------------------------|
A|-----------------------------------------|
E|-----------------------------------------|
  4:07


e|-19p15------19p15--19----19p15-------|
B|-------17----------------------17~~\-|
G|-------------------------------------|
D|-------------------------------------|
A|-------------------------------------|
E|-------------------------------------|
  4:11

                                      (several times) 
e|-17--17-17---17--17-17-17---17-17---17-----17-17-17-17-|
B|------------------------------------20b22--------------|
G|-------------------------------------------------------|
D|-------------------------------------------------------|
A|-------------------------------------------------------|
E|-------------------------------------------------------|
  4:13

e|-20b22---20b22---17-------------|
B|--------------------20-17-------|
G|--------------------------19-17-|
D|--------------------------------|
A|--------------------------------|
E|--------------------------------|
  4:21

   (several times)
e|-17-----17-17-17-17--|
B|-20b22---------------|
G|---------------------|
D|---------------------|
A|---------------------|
E|---------------------|
  4:23

   Then:
e|-5-5-5---5-5---x-x---5-5-5---5-5-5---x-x---(5)-|
B|-5-5-5---5-5---x-x---5-5-5---5-5-5---x-x---(5)-|
G|-5-5-5---5-5---X-X---5-5-5---5-5-5---X-X---(5)-|
D|-7-7-7---7-7---X-X---7-7-7---7-7-7---X-X---(7)-|
A|-7-7-7---7-7---X-X---7-7-7---7-7-7---X-X---(7)-|
E|-----------------------------------------------|
  4:30

The song ends with some freaky guitar and keyboard
noises, and then swings to Raul Rekow's and Karl
Perazzo's amazing solo.



Comments:jcrp_21@hotmail.com
Tap to rate this tab
# A B C D E F G H I J K L M N O P Q R S T U V W X Y Z