Guitaretab - guitar tabs
Song name
# A B C D E F G H I J K L M N O P Q R S T U V W X Y Z

Carlos Santana - No One To Depend On tab

Carlos Santana  No One To Depend On

Tabbed by Uchiha23

Lyrics:

Ain't got nobody that I can depend on
Ain't got nobody that I can depend on

Ain't got nobody that I can depend on

Ain't got no one tengo anadie
That I know of no tengo anadie
That I can depend on no tengo anadie
Ain't got no one

Got nobody
That I can depend on no tengo anadie
Ain't got nobody that I can depend on
No tengo anadie. 



Riff One
Guitar1
(0:32)
e----------------------------------------------------------------|
B--------------------------------------------------5-6-5h6p5-----|
G--/7----5b7r5-----------5b7---5b7r5\---------5/7----------------|
D------5--------8---5--------5----------8---5--------------------|
A----------------------------------------------------------------|
E----------------------------------------------------------------|


(0:44)
e-----------------------------------3--5-6-----------------------|
B---------------5h6-5h6-5-----5--6-------------------------------|
G--5b7r5---------------------------------------------------------|
D--------8--5----------------------------------------------------|
A----------------------------------------------------------------|
E----------------------------------------------------------------|


Gtr 1 Enter at (0:57) Vocal     
                                
 (0:50)                  (0:54)                     (0:58)
e----------------------------------------------------------------|
B--6---6p5----------------5---6------6p5----6p5------------------|
G----7-----------5----------------7-----------------7---5--------|
D-------------8----8-------------------------------------8----5--|
A----------------------------------------------------------------|
E----------------------------------------------------------------|

Gtr2  (0:34)                         (0:40)               (0:44)
e----------------------------------------------------------------|
B-----------------------------------------------10---------------|
G---10v----10---9------10----10---9\-----10--------12-----12-----|
D--------------------------------------------12------------------|
A----------------------------------------------------------------|
E----------------------------------------------------------------|

   (0:47)             (0:50)          (0:53)
e----------------------10-----10-------10------------------------|
B--10v------10-------------10----13-------13-(11)----------------|
G-----12-------12--------------------------------12--------------|
D----------------------------------------------------------------|
A----------------------------------------------------------------|
E----------------------------------------------------------------|

   (0:54)                                   (0:57) Enter Vocal
e--------13--13----------13------------------15\-----------------|
B---13b14----------13b14----13b14rpick13----(15)\----------------|
G----------------------------------------------------------------|
D----------------------------------------------------------------|
A----------------------------------------------------------------|
E----------------------------------------------------------------|

e----------------------------------------------------------------|
B---------3---5--5-----3---5--5-----3---5--5---------------------|
G---------3---5--5-----3---5--5-----3---5--5---------------------|
D---------3---5--5-----3---5--5-----3---5--5---------------------|
A----------------------------------------------------------------|
E----------------------------------------------------------------|
  

 (1:20) 35-40 times!          (1:24) 
e--16-------------------------20--20\----------------------------|
B-(16)---------------------------(20)\---------------------------|
G-(16)-----------------------------------------------------------|
D----------------------------------------------------------------|
A----------------------------------------------------------------|
E----------------------------------------------------------------|
 (1:42)Solo 1                    (1:46)
e----------------------------------------------------------------|
B----------------------------------------------------------------|
G--9ch10--9----------10--10--9-----------------10--9--------9b10-|
D------------12---12-----------12--8vv------12-------12--12------|
A----------------------------------------------------------------|
E----------------------------------------------------------------|
 
    (1:50) Vocal: "Ain't got nobody.." with chord acccompaniament
e----------------------------------------------------------------|
B----------------------------------------------------------------|
G-9b10-----------------------------------------------------------|
D----------------------------------------------------------------|
A----------------------------------------------------------------|
E----------------------------------------------------------------|


Riff Two (1:50) to (2:16) Repeat this riff 7 times in 26 secs
e----------------------------------------------------------------|
B----------------------------------------------------------------|
G---------------5------------------------------------------------|
D-------------5---8-7-5----5\----5--8p5--------------------------|
A-----------------------8----------------------------------------|
E----------------------------------------------------------------|

 (2:17)Possibly these notes.
e----3-----|
B----3-----|
G----3-----|
D----------|
A----------|
E----------|
            
          Repeat this Call/Reply riff 9 times     

 Riff Three Guitar 2          Gtr 1 Distorion distance/reverb high
e------------------------| |-------------------------------------|
B------------------------| |-------------------------------------|
G------------------------| |-------------------------------------|
D------------------------| |-------------------------------------|
A-----1--3--3---1h3p1h3\-| |----------1--1----1------------------|
E--3---------------------| |-------3-------3------3\-------------|


After 9 times Guitar 2 takes up Riffs three and four on its own
in the background whilst a new Guitar 1 plays the solo

(3:30)
Look out for subtle change in Guitar 2's backing
e-----------------------------------------------------------------|
B-----------------------------------------------------------------|
G-----------------------------------------------------------------|
D-----------------------------------------------------------------|
A----1-3-1h3p1h3---------1---1------------------------------------|
E--3-----------------1-3---3---3----------------------------------|

ing.



 (2:56)            (2:57)
e----*20-18h20*--------------------------------------------------|
B----------------------------------------------------------------|
G-----------------5/20-------------------------------------------|
D----------------------------------------------------------------|
A----------------------------------------------------------------|
E----------------------------------------------------------------|


(3:00)
e-15b17v--15b17v---------------------20/22---20b22r20-18b--------|
B-----------------14b15--11vv--(11)-----------------------20v----|
G----------------------------------------------------------------|
D----------------------------------------------------------------|
A----------------------------------------------------------------|
E----------------------------------------------------------------|


(3:07)                                            (3:09)
e--------------------------------------------------15-----15-----|
B-(20)2020-18-15--------------(20)-20-2018-20-18(b)--18(b)--18(b)|
G----------------19-19p17p15-------------------------------------|
D----------------------------------------------------------------|
A----------------------------------------------------------------|
E----------------------------------------------------------------|



e-15----------15----15-------------------------------------------|
B----20-20-18)--18(b)--20-20-18(b)-------------------------------|
G----------------------------------------------------------------|
D----------------------------------------------------------------|
A----------------------------------------------------------------|
E----------------------------------------------------------------|


                                 (3:14)
e----------------------------------------------------------------|
B-20-20-18-20-18-15----------------------------------------------|
G-------------------17h19p15171715-------------------------------|
D---------------------------------17\5/17\-----------------------|
A----------------------------------------------------------------|
E----------------------------------------------------------------|


  (3:15)                                         (3:17)
e----------------------------------------------------------------|
B----------------------------------------------------------------|
G--15--17-17---15--17-17---15--17-17---15--17-17--15-17p15-------|
D----------------------------------------------------------17----|
A----------------------------------------------------------------|
E----------------------------------------------------------------|


  
e----------------------------------------------------------------|
B----------------------------------------------------------------|
G----15-15----15-15----15-15-------------------------------------|
D-17-------17-------17-------(17p15)-----------------------------|
A----------------------------------17----------------------------|
E-------------------------------------15\------------------------|

[ Tab from: http://www.guitaretab.com/c/carlos-santana/71971.html ]
(3:20)                                                  (3:23)
e----------------------------------------------------------------|
B----------------------------------------------------------------|
G--------------------------------------------------------5vv-----|
D---8vv----5--8p7p5-8p7p5-8p7p5-8p7p5-8p7p5-8p7p5-8p7p5----------|
A-----------------------------=----------------------------------|
E----------------------------------------------------------------|


(3:24)                                                     (3:29)
e----------------------------------------------------------------|
B---------------------------------------------------5-6-8-8b10b--|
G-----------------------------------------------5-7--------------|
D------------------------------------5--7h8-8p7------------------|
A-8p7-8p5--8p7-8p5---8p7-8p5---8p7-8-----------------------------|
E----------------------------------------------------------------|



e------------------------------------15-13-----------------------|
B-11h13-15p13p11----13p11---------/15-----15---------------------|
G-------------------------12-15--------------17bp15h17p15--------|
D--------------------------------------------------------17------|
A----------------------------------------------------------------|
E----------------------------------------------------------------|


(3:33)
e---------------------10-13p10--10----13---------13----13---13---|
B--------13-------13b---------13---13b---(13)-13b---13b---13b----|
G--15p12---15p12-------------------------------------------------|
D----------------------------------------------------------------|
A----------------------------------------------------------------|
E----------------------------------------------------------------|


                                (3:39)                     (3:40)
e----13----13------1010------------------------------------------|
B-13b---13b---1313-----13p11-13p11-------------------------------|
G---------------------------------12------------------10h12-12p10|
D-----------------------------------10bh12-------10h12-----------|
A------------------------------------------12-10-----------------|
E----------------------------------------------------------------|


(3:41)                       (3:42)             (3:43)
e----------------------------------------------------------------|
B-----------------------------------------------13---------------|
G-(12)h15p12h15-15p14p12-15p14p12------12-15p12---15p12----------|
D-------------------------------------(15)-----------------------|
A----------------------------------------------------------------|
E----------------------------------------------------------------|

Guitar 2 Beginds vibrato-baring up and down chords

e-----------------------------------15--------------------15-----|
B------------------------------15b17--15-13-------------15---18--|
G-15p12--15p12--15p12--15p12----------------15p12-12/(15)--------|
D----------------------------------------------------------------|
A----------------------------------------------------------------|
E----------------------------------------------------------------|

 
       (3:47)
e--------21b22--21b22--21b22-21b22--20-18----(18)h20p18----------|
B-15h18-----------------------------------20-----------20--------|
G---------------------------------------------------------20p18--|
D--------------------------------------------------------------17|
A----------------------------------------------------------------|
E----------------------------------------------------------------|


   (3:49)                       (3:52)
e---15-----------------------------------------------------------|
B-15--18p15------------------------------------------------------|
G-----------17p15-17b19-17bp15h17----(<12>?)0-/12p10-------------|
D--------------------------------17-----------------10b12---10---|
A---------------------------------------------------------12-----|
E----------------------------------------------------------------|


                                            (3:55)
e----------------------------------------------------------------|
B----------------------------------------------------------------|
G------------------10--10----------------------------------------|
D-10b-----10b-10b12--12--12-10--10-------------------------------|
A----12-13--------------------13--13-10--------------------------|
E---------------------------------------13-10--8h10--6h8--6h8----|

 
                                                        (4:00)
e----------------------------------------------------------------|
B-----------------------------------8p6----8v-8vvp6--7p5b---5----|
G-------------------------5--5--5h7----7p5---------------8p5--8-5|
D---------------5---8p5-8--8--8----------------------------------|
A-----------5h8--------------------------------------------------|
E-8p6--6/8-------------------------------------------------------|


(4:01)                      (4:05)               (4:06)
e----------------------------------------------------------------|
B--6h8-8b9-8--8-8(p6)--------------------6-6h8p6-----------------|
G--------------------7p5--5b--5------5h7--------7----------------|
D-----------------------8-------8--5-----------------------------|
A----------------------------------------------------------------|
E----------------------------------------------------------------|

                                                  (4:10)
e-8h10p6----6-----------5h6p5-------5h6p5---------6h8p6---6-6-6--|
B-------8-8--8p6--8-(8)-------8-6-8------8-6h8--8-------8--8-8-8-|
G----------------------------------------------------------------|
D----------------------------------------------------------------|
A----------------------------------------------------------------|
E----------------------------------------------------------------|


 (4:12)
e----13--13------------------------------------------------------|
B-15b--15---15p13------------------------------------------------|
G----------------15-12-15-15p12----------------------------------|
D------------------------------h15-------------------------------|
A----------------------------------------------------------------|
E----------------------------------------------------------------|

                                                     (4:15)
e-----------------15---------------------------------------------|
B--------------------18p15h18p15---------------------------------|
G-------------------------------17p15-17b19r17p15h17p15----------|
D------------------------------------------------------17--------|
A----------------------------------------------------------------|
E----------------------------------------------------------------|

          (4:15) up to about              (4:21) 
e----------------------------------------------------------------|
B----------------15____(18)--15____(18)--------------------------|
G--17p15---15(0)---17ub----17ub-----------15h17p15---------------|
D-------17-----------------------------------------17------------|
A----------------------------------------------------------------|
E----------------------------------------------------------------|

Gtr 2 Volume up on Riff two
Gtr 1 Wah Wah pedal and vibrato bar used to accentuate 
      chords and fills
(4:33) Riff one


(4:51)
Guitar 2      
e-10--13--------------------------10-10-(13)/15-15-15--10--------|
B--------13b15--13---13p11---11--------------------------11-13---|
G-------------------------12---12-----------------------------12-|
D----------------------------------------------------------------|
A----------------------------------------------------------------|
E----------------------------------------------------------------|

 (4:58)
e--------t12--t15-t15-t15----------------------------------------|
B----------------------------------------------------------------|
G--(15p12)----------------15bp12---------------------------------|
D----------------------------------------------------------------|
A----------------------------------------------------------------|
E----------------------------------------------------------------|
Start Riff Two at

(5:07) Clean Guitar            (5:08)
e----------------------------------------------------------------|
B----------------------------------------------------------------|
G-5b7-5h7p5h7p5--------------------------------------------------|
D---------------5p3--------------------5-------------------------|
A------------------5p3-------------5-5---------------------------|
E----------------------6p3--3----3-------------------------------|

Play staccato
Not sure about these 15's
(5:10)
e-------(15)(15)---(15)(15)--------------------------------------|
B-------13---13----13---13--13-13---15p13p12---------------------|
G-12h15--------15---------15-----15---------12-------------------|
D----------------------------------------------------------------|
A----------------------------------------------------------------|
E----------------------------------------------------------------|


(5:22)
e--18-15-18-18-15-18-18-15\--------------------------------------|
B----------------------------------------------------------------|
G----------------------------14-14-14-12-10-10--9--7-------------|
D----------------------------------------------------------------|
A----------------------------------------------------------------|
E----------------------------------------------------------------|

e----12-12-------------------------------------------------------|
B----12-12-------------------------------------------------------|
G----12-12-------------------------------------------------------|
D----12-12-------------------------------------------------------|
A----------------------------------------------------------------|
E----------------------------------------------------------------|

Related for No One To Depend On tab