Guitaretab - guitar tabs
Song name
# A B C D E F G H I J K L M N O P Q R S T U V W X Y Z

Carlos Santana - Let Me Love You Tonight tab

Santana 
Let me love you tonight 
 
Intro
e|-12---------12--------------------------------------------|
B|----10-13.-----10-13-13-13-13-13-13/15-------13-----------|
G|---------------------------------------14-14----14-14-14.-|
D|----------------------------------------------------------|
A|----------------------------------------------------------|
E|----------------------------------------------------------|

Am						     G
Itís midnight - And I donít want to see you leaving
Am				G	         Am      G	A*
Thought of you - going back - back to him is killing me
Am				  G
Baby please - how can you torture my heart
   Dm			 Am
We both know - where we belong
Am			G
we belong here in each otherís arms.

Coro
Dm
Come with me and we can make the heavens sing (Riff 1)
Am
canít deny the forces that you feel within (Riff 2)
Dm
come with me and we can make the heavens sing (Riff 3)
 Am			         G
let me love you tonight, let me love you tonight.
 
Riff 1
e|---------------------|
B|-13.-15-13/15--------|
G|--------------14-14.-|
D|---------------------|
A|---------------------|
E|---------------------|

Riff 2
e|----13-------------------------|
B|-15----15-15-------------------|
G|-------------13/14-12-10-10/12-|
D|-------------------------------|
A|-------------------------------|
E|-------------------------------|

Riff 3
e|-------13--------|
B|-13-15----15-15.-|
G|-----------------|
D|-----------------|
A|-----------------|
E|-----------------|

(if you)
Dm
Go weíll never know - what tomorrow (Riff 4) brings 
Am
got to be a way to end this Ė suffering (Riff 5)
Dm
come with me and we can make the heavens sing
Am			       G
let me love you tonight, let me love you tonight.
 
Riff 4
e|-----------------------------|
B|-13/15..-13------------------|
G|------------14-14-12----(12)-|
D|---------------------15------|
A|-----------------------------|
E|-----------------------------|

Riff 5
e|-------13----------------|
B|-13-15----15-15.--15/18.-|
G|-------------------------|
D|-------------------------|
A|-------------------------|
E|-------------------------|
 
Am					G
Baby I - I donít wanna see you hurtingÖ(no more)
Am					G	Am	       G		  A*
gotta do whatís right - ícos we canít - canít go on like this anymore
Am					G
Iím on my knees - you know itís over with him
Dm			Am
so why go back - when all that you need
  Am				G
you know that itís right here with me.
[ Tab from: http://www.guitaretab.com/c/carlos-santana/75728.html ]
Coro
Dm
Come with me and we can make the heavens sing (Riff 6)
Am
canít deny the forces that you feel within
Dm
come with me and we can make the heavens sing (Riff 3)
Am			       G
let me love you tonight, let me love you tonight.
 
Riff 6
e|-----------------------|
B|-15.-13----------------|
G|--------14-12-14-12----|
D|--------------------15-|
A|-----------------------|
E|-----------------------|

Riff 7
e|----------------------|
B|-13-13-13-13-13*15-15-|
G|----------------------|
D|----------------------|
A|----------------------|
E|----------------------|
 
(if you)
Dm
Go Weíll never know - what tomorrow (Riff 7) brings
Am
got to be a way to end this - suffering
Dm
come with me and we can make the heavens sing
Am			       G
let me love you tonight, let me love you tonight.
 
Come with me and we can make the heavens sing
e|-------------------------------------------------------------
B|-------------------------------------------------------------
G|-----9-10.-10/12------9/10/9-7-9/10/9-7-9/10/9-10-12-10-12.--
D|-12.-------------12.-----------------------------------------
A|-------------------------------------------------------------
E|-------------------------------------------------------------

Come with me and we can make the heavens sing
e|-------10-10.ó-12-12.-13-13.-15..-|
B|-11-13----------------------------|
G|----------------------------------|
D|----------------------------------|
A|----------------------------------|
E|----------------------------------|

Solo
e|-17.-15-13----13-15-17-15-15-13-13-15.-----------13---------
B|-----------15---------------------------15-15-15----15-15.--
G|------------------------------------------------------------
D|------------------------------------------------------------
A|------------------------------------------------------------
E|------------------------------------------------------------

e|-------------------------------------------8-8------------------
B|-----------------------------------------8-----11-11-10-10-8-8--
G|-14-12-12-------12-14---------------9/10------------------------
D|----------15-12-------15-12-15-15-------------------------------
A|----------------------------------------------------------------
E|----------------------------------------------------------------

e|-8------------------------------8-8-10-10-12-12-13-13-15-15.-----------|
B|---11-11-10-10-8-8----8/10-10.--------------------------------etc,-etc-|
G|-------------------10--------------------------------------------------|
D|-----------------------------------------------------------------------|
A|-----------------------------------------------------------------------|
E|-----------------------------------------------------------------------|

A* = 577655


 
Related for Let Me Love You Tonight tab