Song name
# A B C D E F G H I J K L M N O P Q R S T U V W X Y Z

Carlos Santana - Novus tab

Carlos Santana - "Novus"

Here's the first solo to "Novus", no other tab website had it so i had to figure it out, 
sounds right to me so, enjoy.

(Intro/solo background)

E|--------10----12----------------------------------------------------------|
B|----10-------------10--10----8---8----------------------------------------|
G|-------------------------------------10---10----9---9----7---7~-------9~--|
D|--------------------------------------------------------------------------|
A|--------------------------------------------------------------------------|
E|--------------------------------------------------------------------------|


(Intro Solo)
                        *pause*
E|-------------------------|-----------------------------------------------|
B|----10h11-10\8--8/10~----|----10h11-10/8---13---11-11--10-10--8-8--------|
G|-------------------------|----------------------------------------10-10~-|
D|-------------------------|-----------------------------------------------|
A|-------------------------|-----------------------------------------------|
E|-------------------------|-----------------------------------------------|
                        *pause*
E|----------------------------------------------|
B|----15--10----8-8-----------------------------|
G|--------------------10-10~--------------------|           *pause*
D|----------------------------------------------|          Then play
A|----------------------------|              ---|
E|----------------------------|              ---|
                                           \\||//
                                            \\//
E|--------------------------------------------------------------------------|
B|-------8-10-11-10-8-10-11-13-11-10-8--------------10h11-10\8--8/10~-------|
G|---10---------------------------------10--7--10---------------------------|
D|--------------------------------------------------------------------------|
A|--------------------------------------------------------------------------|
E|--------------------------------------------------------------------------|


I think you just play the intro again for the verse :D

E|--------10----12----------------------------------------------------------|
B|----10-------------10--10----8---8----------------------------------------|
G|-------------------------------------10---10----9---9----7---7~-------9~--|
D|--------------------------------------------------------------------------|
A|--------------------------------------------------------------------------|
E|--------------------------------------------------------------------------|


thats pretty much all i know, if you can figure out the other solos please post them.   ;D
Tap to rate this tab
 
# A B C D E F G H I J K L M N O P Q R S T U V W X Y Z