Song name
# A B C D E F G H I J K L M N O P Q R S T U V W X Y Z

Carlos Varela - Una Palabra tab

Help us improve GuitareTab! Take a short survey!
            Una Palabra
                by
            Carlos Varela



Una palabra no dice nana
Y el mismo tiempo lo esconde todo

E -3-2-0-0-------------|-------0-----2-3-2-3-2-0-|
B ---------3-----3-1-0-|-----0---4-0-------------|
G -------------2-------|-0-2---------------------|
D -----------0---------|-------------------------|
A ---------------------|-------------------------|
E ---------------------|-------------------------|


igual que el viento que esconde el agua
como las flores que esconde el lodo.

E ---------------------|---------------------|
B -----0-3-3-----3-1-0-|-------0-----1-0-----|
G -0-2---------2-------|-0---0---2-------2-0-|
D -----------0---------|---4-----------------|
A ---------------------|-----------2---------|
E ---------------------|---------------------|


Una mirada no dice nada
y al mismo tiempo lo dice todo

E -3-2-0-0-------------|-------0-----2-3-2-3-2-0-|
B ---------3-----3-1-0-|-----0---4-0-------------|
G -------------2-------|-0-2---------------------|
D -----------0---------|-------------------------|
A ---------------------|-------------------------|
E ---------------------|-------------------------|


como la lluvia sobre tu cara
o el viejo mapa de algún tesoro.

E ---------------------|---------------------|
B -----0-3-3-----3-1-0-|-------0-----1-0-----|
G -0-2---------2-------|-0---0---2-------2-0-|
D -----------0---------|---4-----------------|
A ---------------------|-----------2---------|
E ---------------------|---------------------|


como la lluvia sobre tu cara
o el viejo mapa de algún tesoro.

E ---------------------|---------------------|
B -----0-3-3-----3-1-0-|-------0-------------|
G -0-2---------2-------|-0---0---2---2-0-----|
D -----------0---------|---4-------------4-2-|
A ---------------------|-----------2---------|
E ---------------------|---------------------|


Una verdad no dice nada
y al mismo tiempo lo esconde todo

E -------------------|-------1-0-----0-----|
B -------------3-1-0-|-0---0-----3-0---3-1-|
G -0---2-2---2-------|---3-----------------|
D ---4-----0---------|---------------------|
A -------------------|---------------------|
E -------------------|---------------------|


como una hoguera que no se apaga
como una piedra que nace polvo.

E ---------------------|---------------------|
B ---0-1-3-3-----3-1-0-|-------0-----1-0-----|
G -2-----------2-------|-0---0---2-------2-0-|
D -----------0---------|---4-----------------|
A ---------------------|-----------2---------|
E ---------------------|---------------------|


Si un día me faltas no seré nada
y al mismo tiempo lo seré todo

E -3-2-0-0-------------|-------0-----2--3-2-3-2-0-|
B ---------3-----3-1-0-|-----0---4-0--------------|
G -------------2-------|-0-2----------------------|
D -----------0---------|--------------------------|
A ---------------------|--------------------------|
E ---------------------|--------------------------|


porque en tus ojos están mis alas
y está la orilla donde me ahogo,

E ---------------------|---------------------|
B -----0-3-3-----3-1-0-|-------0-----1-0-----|
G -0-2---------2-------|-0---0---2-------2-0-|
D -----------0---------|---4-----------------|
A ---------------------|-----------2---------|
E ---------------------|---------------------|


porque en tus ojos están mis alas
y está la orilla donde me ahogo.

E ----------------------|----------------------|
B -----0-3-3------3-1-0-|-------0--------------|
G -0-2---------2--------|-0---0---2---2-0------|
D -----------0----------|---4--------------4-2-|
A ----------------------|-----------2----------|
E ----------------------|----------------------|


http://www.carlosvarela.com/
Related for Una Palabra tab