Song name
# A B C D E F G H I J K L M N O P Q R S T U V W X Y Z

Carlos Vives - Fruta Fresca tab

Help us improve GuitareTab! Take a short survey!
i dint find this song on this site so i tabbed it myself. i think its played on
some mandolin or other small giutar but it sounds okay if you play it like this.


   
E|--------------------------|---------------------------|
B|----------1----0----------|--0------------1----0------|
G|-------2---------------2--|----2-------2--------------|
D|-----2-------2------2-----|----------2-------2------2-|
A|--0-----------------------|-------0-------------------|
E|--------------------------|---------------------------|
                                                                                
E|-------------------------|--------------------------|--------------------|
B|----0------------3----0--|----------0---------------|------------0-------|
G|-2----2-------2----------|-------2----2----------2--|----1----------1----|
D|------------3-------3----|----3---------------0-----|------------------0-|
A|---------0---------------|------------------2-------|--2------2----------|
E|-------------------------|---------------0----------|--------------------|


  i dont know spanish so i couldent get the lyrics down.





Related for Fruta Fresca tab