Song name
# A B C D E F G H I J K L M N O P Q R S T U V W X Y Z

Carly Rae Jepsen - Sour Candy Feat Josh Ramsay tab

=============================================================================
                        Sour Candy - CARLY RAE JEPSEN
=============================================================================

ARTIST: Carly Rae Jepsen
SONG: Sour Candy (feat. Josh Ramsay)
ALBUM: Tug Of War

Tuning: EADGBE

INTRO:
|--3--------3--------3--------3------|
|--3--------3--------3--------3------|
|------------------------------------| x2
|----------------------0-0------0-0--|
|------------------------------------|
|----3-3------0-0--------------------|



VERSE:
|--3--------3--------3--------3------|
|--3--------3--------3--------3------|
|------------------------------------|
|----------------------0-0------0-0--| x3
|------------------------------------|
|----3-3------0-0--------------------|

|--3--------3--------3--------3------|
|--3--------3--------3--------3------|
|------------------------------------|
|----------------------0-0------0-0--|
|-------------3-3--------------------|
|----0-0-----------------------------|



CHORUS:
G  D       Asus4    
No we went under
            Cadd9
The weight was too much to carry in
G   D       Asus4
I felt the thunder
       Cadd9
Mister don't look so scared 
G               D         Asus4
I never knew, I never knew
     Cadd9          G   D       Cadd9
That I could be so sad we went under



VERSE x1
CHORUS x1



BRIDGE:
Cadd9               Bm7                Em
Oh get yourself home, You leave him alone
   D                Bm7                      Cadd9
On second thought I regret the things to let go
 (no chord)
Oh-ho...



INTERLUDE
|----|--3--------3------|--3--------3------|--3--------3------|--3--|
|-12-|--3--------3------|--3--------3------|--3--------3------|--3--|
|-12-|------------------|------------------|------------------|-----|
|----|------------------|----0-0------0-0--|------------------|--2--|
|----|------------------|------------------|------------------|--3--|
|----|----3-3------0-0--|------------------|----3-3------0-0--|-----|



CHORUS:
G  D         Asus4
No we went under
               Cadd9
The weight was too much to carry in
G  D        Asus4
I felt the thunder
        Cadd9
Mister don't look so scared 
G             D           Asus4
I never knew, I never knew
     Cadd9            G   D
That I could be so sad,
Cadd9   
so sad,
G        D
so sad,
Cadd9
so sad,
G       D       Cadd9
so sad we went under... 

Tap to rate this tab
 
# A B C D E F G H I J K L M N O P Q R S T U V W X Y Z