Guitaretab - guitar tabs
Song name
# A B C D E F G H I J K L M N O P Q R S T U V W X Y Z

Carly Rae Jepsen - Sour Candy tab

ARTIST: Carly Rae Jepsen
SONG: Sour Candy (feat. Josh Ramsay)

INTRO:
  G         Em        D       D
|--3--------3--------3--------3------|
|--3--------3--------3--------3------|
|------------------------------------|
|----------------------0-0------0-0--|
|------------------------------------|
|----3-3------0-0--------------------|

|--3--------3--------3--------3------2/3-|
|--3--------3--------3--------3----------|
|----------------------------------------|
|----------------------0-0------0-0------|
|----------------------------------------|
|----3-3------0-0------------------------|

VERSE:
Same as above
|--3--------3--------3--------3------|
|--3--------3--------3--------3------|
|------------------------------------|
|----------------------0-0------0-0--|
|------------------------------------|
|----3-3------0-0--------------------|

|--3--------3--------3--------3------2/3-|
|--3--------3--------3--------3----------|
|----------------------------------------|
|----------------------0-0------0-0------|
|----------------------------------------|
|----3-3------0-0------------------------|
[ Tab from: http://www.guitaretab.com/c/carly-rae-jepsen/224121.html ]
|--3--------3--------3--------3------|
|--3--------3--------3--------3------|
|------------------------------------|
|----------------------0-0------0-0--|
|------------------------------------|
|----3-3------0-0--------------------|


    Em      C        D        D
|--3--------3--------3--------3------2/3-|
|--3--------3--------3--------3----------|
|----------------------------------------|
|----------------------0-0------0-0------|
|-------------3-3------------------------|
|----0-0---------------------------------|

CHORUS:
G  D       Am
No we went under
            Cadd9
The weight was too much to carry and
G   D      Am
I felt the thunder
       Cadd9
Mister don't look so scared
G               D     Am
I never knew, I never knew
     Cadd9          G   D      Am   Am
That I could be so sad we went under

VERSE x1
CHORUS x1

BRIDGE:
C                B7                 Em
Oh get yourself home, You leave him alone
 Em/D              A/C#                    C
On second thought I regret the pink stilettos
Cm
Oh-ho...

INTERLUDE
|----|--3--------3------|--3--------3------|--3--------3-------|
|-12-|--3--------3------|--3--------3------|--3--------3-------|
|-12-|------------------|------------------|-------------------|
|----|------------------|----0-0------0-0--|-------------------|
|----|------------------|------------------|-------------------|
|----|----3-3------0-0--|------------------|----3-3------0-0---|
                                           Am
      Sour candy ending, I was barely even there


CHORUS:
Related for Sour Candy tab
Sour Candy chords by Carly Rae Jepsen