Guitaretab - guitar tabs
Song name
# A B C D E F G H I J K L M N O P Q R S T U V W X Y Z

Carly Rae Jepsen - Call Me Maybe tab

Here's a link to a video of it being played:
http://www.youtube.com/watch?v=axQrpZgM1GQ

This is my fingerstyle arrangement of Call Me Maybe (standard tuning).
I also have this in GP6/PDF format if you want.

Title: Call me maybe
SubTitle: Arranged by Kevin C. Su
Artist: Carly Rae Jepsen
Tempo = 112
Steel Guitar

Legend
L - tied note
x - dead note
h - hammer on/pull off
b - bend
s - slide

E ||---------------------------|----------------------------|
B ||----0--0--0--0--0-----0----|-----0--0--0--0--0-----0----|
G ||o0-----------0-----0-------|----------------------------|
D ||o------------------7-------|--0-----------------7-------|
A ||---------------------------|--------------7-----7-------|
E ||-8-------------------------|----------------------------|


----------------------------|
-----0--0--0--0--0----------|
--------------0-----0-------|
--------------------7--7----|
----------------------------|
--8-------------------------|


---------------------------------------------------||
-----------------------------------3--------0------||
--------2-----2-----0-----0-----------------------o||
--0-----------------------0-----------------------o||
---------------------------------------------------||
---------------------------------------------------||


----------------------------------------------------|
--------------3L----3-----3-----0-------------------|
--------------0-----------0--------2--------0-------|
--------2-----------2--------------2----------------|
--3-------------------------------------------------|
----------------------------------------------------|

[ Tab from: http://www.guitaretab.com/c/carly-rae-jepsen/311819.html ]
----------------------------------------------------|
--3L----3-----3L----3-----3-----0-------------------|
--------------2--------------------2--------0-------|
--------0-----------0--------------2----------------|
----------------------------------------------------|
--2-----------------------2-------------------------|


----------------------------------------------------|
--3-----------3L----3-----3-----0-------------------|
--0-----------0-----------0--------2--------0-------|
--------2-----------2--------------2----------------|
--3-------------------------------------------------|
----------------------------------------------------|


--3--3--3--3--3--3--5--7----||
--------------------5-------||
--------2-------------------||
--0-----------0--0----------||
----------------------------||
----------------------------||


-------------3L----3--------------3L-3L----3-------|
-------------0-----------0-----3-----------3L------|
o------------0-----------------------------0L------|
o2-----------------2-------------------------------|
-3-----------------------3-------------------------|
-------------x-----------------------x-------------|


-----------------------------------7L-7-----3L------|
--3-----------------0-----0-------------------------|
--0-----------------------------7-----------0-------|
--------4-----4-----------------------------2-------|
--------5-----5-------------------------------------|
--------------x-----------------------x-------------|


--3--------3s-7--8--7--3L---|--3--------3--7h-5--5--3L--||
-----------------------0----|--------------------3------||
--------------0--------0----|--------------------------o||
-----2--2L-2----------------|-----4--4-----0-----------o||
-----3--3L-3----------------|-----5--5------------------||
--------x-----------x-------|--------x-----------x------||


--3--------3--7--5--5--3L---|--3L-3----------------------|
--------------------3--3L---|--3L-3----------------------|
----------------------------|-----0-----0-----0-----0----|
-----4--4-----0-------------|----------------------------|
-----5--5-------------------|----------------------------|
--------x-----------x-------|--3-----x-----3-----x-------|
Related for Call Me Maybe tab
Call Me Maybe chords by Carly Rae Jepsen