Song name
# A B C D E F G H I J K L M N O P Q R S T U V W X Y Z

Carly Rae Jepsen - Call Me Maybe tab

This is a power chord version.  Please rate or submit feedback.

Verse: Just indiviual picking

e|--------------------------------------------------------------------------|
B|--------------------------------------------------------------------------|
G|--------------------------------------------------------------------------|
D|--5-5-5-5-5-5-5-5---------------------------------------------------------|
A|-3-3-3-3-5-5-5-5----------------------------------------------------------|
E|--------------------------------------------------------------------------|

Chorus: (Start at "hey, I just met you")......

e|--------------------------------------------------------------------------|
B|--------------------------------------------------------------------------|
G|-5--9-77--9--55---9--77---------------------------------------------------|
D|-5--9-77--9--55---9--77---------------------------------------------------|
A|-3--7-55--7--33---7--55---------------------------------------------------|
E|--------------------------------------------------------------------------|
Tap to rate this tab
# A B C D E F G H I J K L M N O P Q R S T U V W X Y Z