Song name
# A B C D E F G H I J K L M N O P Q R S T U V W X Y Z

Carly Rae Jepsen - Call Me Maybe tab

-------------------------------------------------------------------------------
                             Call Me Maybe - Carly Rae Jepsen
-------------------------------------------------------------------------------
Tabbed by: Hywel Evans
E-mail: hywelhwyaden@gmail.com

Tuning: Standard

e|----------------------------------------------------------------------|
B|---0-0-0-0-0---0----0-0-0-0-0---0----0-0-0-0-0---------------3-0------|
G|-------------2----------------2----------------2-2----22-0-0----------| X2
D|----------------------------------------------------------------------|
A|----------------------------------------------------------------------|
E|----------------------------------------------------------------------|

e|------------------------------------------------3-3-3-3-3-3-5-7-------|
B|---3-3-0-------3-3-3-0---------3-3-3-0--------------------------------|
G|---------2-0-----------2-0-------------2-0----------------------------|
D|----------------------------------------------------------------------|
A|----------------------------------------------------------------------|
E|----------------------------------------------------------------------|

e|---3-----3-------------7------3----------------3-7-5-5-3--------|
B|-----0-3---3-----0-0-3---3------0-1-0---------------------------| X4
G|--------------------------------------0-------------------------|
D|----------------------------------------------------------------|
A|----------------------------------------------------------------|
E|----------------------------------------------------------------|

e|----------------------------------------------------------------------|
B|---0-0-0-0-0---0----0-0-0-0-0---0----0-0-0-0-0---------------3-0------|
G|-------------2----------------2----------------2-2----22-0-0----------| X2
D|----------------------------------------------------------------------|
A|----------------------------------------------------------------------|
E|----------------------------------------------------------------------|


e|------------------------------------------------3-3-3-3-3-3-5-7-------|
B|---3-3-0-------3-3-3-0---------3-3-3-0--------------------------------|
G|---------2-0-----------2-0-------------2-0----------------------------|
D|----------------------------------------------------------------------|
A|----------------------------------------------------------------------|
E|----------------------------------------------------------------------|


e|---3-----3-------------7------3----------------3-7-5-5-3--------|
B|-----0-3---3-----0-0-3---3------0-1-0---------------------------| X4
G|--------------------------------------0-------------------------|
D|----------------------------------------------------------------|
A|----------------------------------------------------------------|
E|----------------------------------------------------------------|

Hopefully I've helped you
Tap to rate this tab
 
# A B C D E F G H I J K L M N O P Q R S T U V W X Y Z