Song name
# A B C D E F G H I J K L M N O P Q R S T U V W X Y Z

Carly Rae Jepsen - Call Me Maybe tab

Call Me Maybe - Carly Rae Jepsen - Re-Tabbed by Grandtitan19 (Drew Terbrack)

Top line are the Chords, mute where you deem necessary, bottom six lines are the lyrics, 
which are played behind the vocalist. If you dont understand D.S. or D.C. or al Coda, I 
put it all in brackets.

Each Dash/Character is a Sixteenth note

Standard Tuning:

^ :Slide
) :Bend
_ :Hammer/Pull
/ :Repeat Previous Chord/Mute
f :Forte (loud)
p :Piano (Soft)
m :Mezzo (Medium)
> :Decrescendo (Softer)
< :Increscendo (Louder)

-=Intro=-
  m
~|C-/-/-/-/-/-/-/-|C-/-/-/-/-/-/-/-|

e|----------------|----------------|
B|----------------|----------------|
G|--Two Bar Rest--|----------------|
D|----------------|----------------|
A|----------------|----------------|
E|----------------|----------------|


-=Verse 1=-
S m                                                          > mp (2nd Time)
~|C---/-/-/-/-/-G-|D-/-/-/-/-/-/-Em|C-/-/-/-/-/-/-G-|D-/-/-/-/-/-/-/-|
S
e|--4-4-4-4-4-2-4-|--4-4-4-4-4-2-4-|--4-4-4-4-4-2-2-|--2-2-0-0--7--4-|
B|----------------|----------------|----------------|----------------|
G|----------------|----------------|----------------|----------------|
D|----------------|----------------|----------------|----------------|
A|----------------|----------------|----------------|----------------|
E|----------------|----------------|----------------|----------------|
                                                                  D.S. (Play verse 2x)


-=Pre-Chorus 1=-
  m                                                  < f
~|C---/-/-/-/-/-G-|D---D-/-/-/-/-/-|C---C-/-/-/-/-G-|D-/-/-/-/-/-/-/-|

e|----7---7-42-0--|7---7---7-42-0--|7---7---7-42-0--|0-0-0-0-0-0-2-4-|
B|----------------|----------------|----------------|----------------|
G|----------------|----------------|----------------|----------------|
D|----------------|----------------|----------------|----------------|
A|----------------|----------------|----------------|----------------|
E|----------------|----------------|----------------|----------------|


-=Chorus 1=-
  f
~|C---/-/-/-/-/-G-|D-D-/-/-/-/-/-Em|C-C-/-/-/-/-/-G-|D-D-/-/-/-/-/-/-|

e|----0----0------|-----------4--0-|------0-4-5-4-0-|------0-4-2-2-0-|
B|-------0---0----|---------0------|----------------|----------------|
G|------1---------|------1-1-------|----------------|----------------|
D|----------------|----------------|----------------|----------------|
A|----------------|----------------|----------------|----------------|
E|----------------|----------------|----------------|----------------|

  f                                                               To Coda (Go to the 3rd line)
~|C---/-/-/-/-/-G-|D-D-/-/-/-/-/-Em|C-C-/-/-/-/-/-G-|D-/-/-/-/-/-/-/-|

e|----0----0------|------------4---|--0---0-4-5-4-0-|------0-4-2-2-0-|
B|-------0---0----|----------0-----|----------------|----------------|
G|------1---------|--------1-------|----------------|----------------|
D|----------------|----------------|----------------|----------------|
A|----------------|----------------|----------------|----------------|
E|----------------|----------------|----------------|----------------|
                                                                  D.S. al Coda (Repeat 
First Line then skip to third)
  f
~|C---/-/-/-/-/-G-|D-D-/-/-/-/-/-Em|C-C-/-/-/-/-/-G-|D-/-/-/-/-/-/-/-|

e|----0------0-0--|------------4---|--0---0-4-5-4-0-|------0-4-2-2-0-|
B|----------0---0-|----------0-----|----------------|----------------|
G|--------1-------|--------1-------|----------------|----------------|
D|----------------|----------------|----------------|----------------|
A|----------------|----------------|----------------|----------------|
E|----------------|----------------|----------------|----------------|
  Coda


-=Interlude=-
  mp
~|C-/-/-/-/-/-/-/-|C-/-/-/-/-/-/-/-|

e|----------------|----------------|
B|----------------|----------------|
G|--Two Bar Rest--|----------------|
D|----------------|----------------|
A|----------------|----------------|
E|----------------|----------------|

-=Verse 2=-


-=Pre-Chorus 2=-


-=Chorus 2=-


-=Bridge=-
  mf
~|C-/-/-/-/-/-/-G-|D-/-/-/-/-/-/-Em|C-/-/-/-/-/-/-G-|D-/-/-/-/-/-/-/-|

e|----4-2-2-0-0-2-|--------2---0---|--------2---0---|--------2---2---|
B|--0-------------|0-0-0-0---------|--0-0-0---------|--0-0-0---------|
G|----------------|----------------|----------------|----------------|
D|----------------|----------------|----------------|----------------|
A|----------------|----------------|----------------|----------------|
E|----------------|----------------|----------------|----------------|

  mf
~|C-/-/-/-/-/-/-G-|D-/-/-/-/-/-/-Em|C-/-/-/-/-/-/-G-|D-/-/-/-/-/-/-/-|

e|0-0-4-2-2-0-0-2-|--------2---0---|--------2---0---|--------2---2---|
B|----------------|0-0-0-0---------|--0-0-0---------|--0-0-0---------|
G|----------------|----------------|----------------|----------------|
D|----------------|----------------|----------------|----------------|
A|----------------|----------------|----------------|----------------|
E|----------------|----------------|----------------|----------------|


~|C-------------G-|D-D-----------Em|C-C-----------G-|D---------------|

e|-0--------------|----------------|----------------|----------------|
B|----------------|----------------|----------------|----------------|
G|----------------|-Three Bar Rest-|----------------|----------------|
D|----------------|----------------|----------------|----------------|
A|----------------|----------------|----------------|----------------|
E|----------------|----------------|----------------|----------------|

-=Chorus 3=-

Fine - The End
Tap to rate this tab
 
# A B C D E F G H I J K L M N O P Q R S T U V W X Y Z