Song name
# A B C D E F G H I J K L M N O P Q R S T U V W X Y Z

Carnal Grief - Epitaph tab

-------------------------------------------------------------------------------
			     Epitaph - Carnal Grief
-------------------------------------------------------------------------------
Tabbed by: Mattorious_swe

Tuning: Standard

1st part
e|-----------------------------*--------------------------------------------|
B|-----------------------------*--------------------------------------------|
G|-----------------------------*--------------------------------------------|
D|--2-----5---4-8----5-5-4-----*--2-----5---4--2-------5-1s2----------------|
A|--2-----5-s-4-8----5-5-4-----*--2-----5-s-4-------------------------------|
E|--0-0-0-3---2-6----3-3-2-----*--0-0-0-3---2----0-0-0----------------------|

2nd Part
e|---------------------------*----------------------------------------------|
B|---------------------------*----------------------------------------------|
G|---------------------------*----------------------------------------------|
D|-----2-1s2-2-2-2-1s2-5-----*x2----------------2-1s2-----------------------|
A|---------------------------*--------------------------2-5-----------------|
E|-0-0---keep-adding-0-in-between the-notes-0-0-------3-----2-5-3-0---------|
                                    not sure about that part^
3rd Part
e|---------------*----------------------------------------------------------|
B|---------------*----------------------------------------------------------|
G|---------------*----------------------------------------------------------|
D|---2-5-2-1-4-1-*------8-7-8-7---------------------------------------------|
A|-2-------------*x3--2-8-7s8s7---
                        
                    
Tap to rate this tab
# A B C D E F G H I J K L M N O P Q R S T U V W X Y Z