Song name
# A B C D E F G H I J K L M N O P Q R S T U V W X Y Z

Carnifex - The Diseased And The Poisoned tab

B |---------------------------------------------------------------------------|
Gb|---------------------------------------------------------------------------|
D |---------------------------------------------------------------------------|
A |---------------------------------------------------------------------------|
E |---------1p0----5p0-4p0-------1p0-111-4------------------------------------|
A |-0-1p0-0-----0----------0-1p0-----111-4------------------------------------|

B |---------------------------------------------------------------------------|
Gb|---------------------------------------------------------------------------|
D |---------------------------------------------------------------------------|
A |------------------------3----5----7----6-----------------------------------|
E |---------1p0----5p0-4p0---55---55---55---55--------------------------------|
A |-0-1p0-0-----0-------------------------------------------------------------|
play twice                |  play twice       |
                          |2nd time through   |

B |------------------------------------------------------------------------------|
Gb |-----------------------------------------------------------------------------|
D |------------------------------------------------------------------------------|
A |------------------------------------------------------------------------------|
E |-----8"----8"-7"-------------12"------12"--10"--8"--10"--12"------------------|
A |--0"----0"--------0"--7"--8"------8"------------------------------------------|

B |------------------------------------------------------------------------------|
Gb |-----------------------------------------------------------------------------|
D |------------------------------------------------------------------------------|
A |------------------------------------------------------------------------------|
E |-----8"------8"--7"--------------8"--7"------4"--5"---------------------------|
A |--0"-----0"----------0"--7"--8"----------7"-----------------------------------|
Tap to rate this tab
# A B C D E F G H I J K L M N O P Q R S T U V W X Y Z