Song name
# A B C D E F G H I J K L M N O P Q R S T U V W X Y Z

Carnifex - Hell Chose Me tab

                    This song is off there new album thats
                      not even out yet.its been out for
                      two days i think i decided to tab
                        it out some rough draft,this
                         song is in Drop A tuning.



~ - let note ring
x - times played

Intro

E|-----------------------------------------------------|-
B|-----------------------------------------------------|--
G|-----------------------------------------------------|---
D|-----------------------------------------------------|---- x 2
A|-------333-------333--222-------333-------333--666---|---
E|-------555-------555--444-------555-------555--888---|--
A|--000-------000------------000-------000-------------|-


E|--------------------------------------------------------|-
B|--------------------------------------------------------|--
G|--------------------------------------------------------|---
D|--------------------------------------------------------|---- x 2
A|-------333-------333--222-------333---------------------|---
E|-------555-------555--444-------555--3-2-1-0-3-2-1-0----|--
A|--000-------000------------000-------3-2-1-0-3-2-1-0----|-

play twice
E|----------------------------------------------------------|
B|----------------------------------------------------------|
G|----------------------------------------------------------|
D|----------------------------------------------------------|
A|--3---------3---------3-------2---------2---------2-------|
E|----------------------------------------------------------|
A|-----00-00-----00-00-----00------00-00-----00-00-----00---|

with this
E|-------------------------------------------------------------------------|
B|-------------------------------------------------------------------------|
G|-------------------------------------------------------------------------|
D|-------------------------------------------------------------------------|
A|--3---------3---------3--------------------------------------------------|
E|-----------------------------444444-333333-111111------------------------|
A|-----00-00-----00-00-----00-----------------------444444-333333-111111---|

then this twice
E|----------------------------------------------------------|
B|----------------------------------------------------------|
G|----------------------------------------------------------|
D|----------------------------------------------------------|
A|--5---------5---------5-------4---------4---------4-------|
E|--3---------3---------3-------2---------2---------2-------|
A|-----00--------00--------0-------00--------00--------0----|

with this
E|--------------------------------------------------|
B|--------------------------------------------------|
G|--------------------------------------------------|
D|--------------------------------------------------|
A|--5---------5---------5---------------------------|
E|--3---------3---------3------4-3-2-1--3-2-1-0-----|
A|-----00--------00--------0---4-3-2-1--3-2-1-0-----|

E|------------------------------------------------------|-
B|------------------------------------------------------|--
G|------------------------------------------------------|---
D|------------------------------------------------------|---
A|---------------------555-333-222-333------------------|---
E|-------555-777-888------------------------------------|---
A|--000-------------------------------------------------|---

E|------------------------------------------------------|---
B|------------------------------------------------------|---
G|------------------------------------------------------|---
D|------------------------------------------------------|----- x 2
A|---------------------555-333-222222-------------------|---
E|-------555-777-888------------------------------------|---
A|--000-------------------------------------------------|---

E|------------------------------------------------------|---
B|------------------------------------------------------|---
G|------------------------------------------------------|---
D|------------------------------------------------------|---
A|---------------------555-333-222-333------------------|---
E|-------555-777-888--------------------555555-444444---|--
A|--000-------------------------------------------------|-

E|---------------------------------------------------------|-
B|---------------------------------------------------------|--
G|---------------------------------------------------------|---
D|---------------------------------------------------------|---- x 2
A|-----------333-222-------------333-222-000---------------|---
E|--000-000-----------00-00-000--------------555-444-000---|--
A|--000-000-----------00-00-000----------------------------|-

sorry i cant find tapping
at the moment i will soon
E|---------------------------------------|-
B|---------------------------------------|--
G|---------------------------------------|---
D|---------------------------------------|---- x 4
A|-----------5-4-------------------------|---
E|--000-000--3-2--0-0-000---6-5-3--------|--
A|--111-111-------0-0-000---6-5-3--------|-

E|------------------------------------------------------|-
B|------------------------------------------------------|--
G|------------------------------------------------------|---
D|------------------------------------------------------|---
A|---------------------555-333-222-333------------------|---
E|-------555-777-888------------------------------------|---
A|--000-------------------------------------------------|---

E|------------------------------------------------------|---
B|------------------------------------------------------|---
G|------------------------------------------------------|---
D|------------------------------------------------------|----- x 2
A|---------------------555-333-222222-------------------|---
E|-------555-777-888------------------------------------|---
A|--000-------------------------------------------------|---

E|------------------------------------------------------|---
B|------------------------------------------------------|---
G|------------------------------------------------------|---
D|------------------------------------------------------|---
A|---------------------555-333-222-333------------------|---
E|-------555-777-888--------------------555555-444444---|--
A|--000-------------------------------------------------|-

find out yourself

E|-----------------------------------------------------|-
B|-----------------------------------------------------|--
G|-----------------------------------------------------|---
D|-----------------------------------------------------|----
A|-------333-------333--222-------333-------333--666---|---
E|-------555-------555--444-------555-------555--888---|--
A|--000-------000------------000-------000-------------|-


how many times to play it

E|--------------------------------------------------------|-
B|--------------------------------------------------------|--
G|--------------------------------------------------------|---
D|--------------------------------------------------------|----
A|-------333-------333--222-------333---------------------|---
E|-------555-------555--444-------555--3-2-1-0-3-2-1-0----|--
A|--000-------000------------000-------3-2-1-0-3-2-1-0----|-

play twice
E|----------------------------------------------------------|
B|----------------------------------------------------------|
G|----------------------------------------------------------|
D|----------------------------------------------------------|
A|--3---------3---------3-------2---------2---------2-------|
E|----------------------------------------------------------|
A|-----00-00-----00-00-----00------00-00-----00-00-----00---|

with this
E|-------------------------------------------------------------------------|
B|-------------------------------------------------------------------------|
G|-------------------------------------------------------------------------|
D|-------------------------------------------------------------------------|
A|--3---------3---------3--------------------------------------------------|
E|-----------------------------444444-333333-111111------------------------|
A|-----00-00-----00-00-----00-----------------------444444-333333-111111---|

breakdown
E|---------------------------------------|
B|---------------------------------------|
G|---------------------------------------|
D|---------------------------------------|
A|--0~-----------------------------------|
E|--0~--000--0--000--0--000--0--000--0---|
A|--0~--000--0--000--0--000--0--000--0---|


find the rythem to it
yourself
E|---------------------------------------|
B|---------------------------------------|
G|---------------------------------------|
D|---------------------------------------|
A|---------------------------------------|
E|--0--000000--0000---000000---0000------|
A|--1--111111--1111---111111---1111------|

outro/end
E|-----------------------------------------------------|
B|-----------------------------------------------------|
G|-----------------------------------------------------|
D|-----------------------------------------------------|
A|--0~-------------------------------------------------|
E|--0~-000000--0000------------000000--0000------------|
A|--1~-111111--1111--444-333---111111--1111--444-333---|

                      i can barley hear the guitar in
                      this song so correct me if there
                      is mistakes that you can help me
                         with thanks alot hope you
                          enjoyed comment and rate
                                    :)

Tap to rate this tab
# A B C D E F G H I J K L M N O P Q R S T U V W X Y Z