Song name
# A B C D E F G H I J K L M N O P Q R S T U V W X Y Z

Carnifex - Hell Chose Me tab

-------------------------------------------------------------------------------
			     Hell Chose Me - Carnifex
-------------------------------------------------------------------------------
Tabbed by:Cory Arford(guitarist in Carnifex)
Email:fingerwork420@gmail.com

Tuning:A,E,A,D,G,B,E


Trem the single notes and palm mute the 321's
The two guitars play together with the cymbal catches
2 times then the 4 count starts when the blast beat starts
(gtr 1)
|------------------------------------------------|-------------------------------------|
|------------------------------------------------|-------------------------------------|
|------------------------------------------------|-------------------------------------|
|------------------------------------------------|-------------------------------------|
|------------------------------------------------|-------------------------------------|
|--3-2-1-5---3-2-1-5--4---3-2-1-5---3-2-1-5--6---|--3-2-1-5---3-2-1-2-1-0-1-2-1-4-3-2--|
|--3-2-1-----3-2-1--------3-2-1-----3-2-1--------|--3-2-1-----3-2-1-2-1-0-1-2-1-4-3-2--|
   - - -     - - -        - - -     - - -           - - -     - - - - - - - - - - - -
(gtr 2)                                           4th count of the opening riff
|------------------------------------------------|-------------------------------------|
|------------------------------------------------|-------------------------------------|
|------------------------------------------------|-------------------------------------|
|------------------------------------------------|-------------------------------------|
|--------3---------3--2---------3---------3--4---|--------3----------------------------|
|--3-2-1-----3-2-1--------3-2-1-----3-2-1--------|--3-2-1-----3-2-1-2-1-0-1-2-1-4-3-2--|
|--3-2-1-----3-2-1--------3-2-1-----3-2-1--------|--3-2-1-----3-2-1-2-1-0-1-2-1-4-3-2--|
   - - -     - - -        - - -     - - -           - - -     - - - - - - - - - - - -


riff 2-both guitars                                               trem
|----------------------------------------------------------------|-----------|
|----------------------------------------------------------------|-----------|
|----------------------------------------------------------------|-----------|
|----------------------------------------------------------------|-----------|
|--3---------3---------3---2---------2---------2---3---------3---|-----------|
|------------------------4-----------------------3-------------4-|-1-0-4-----|
|----111-111---111-111-------000-000---000-000-------111-111-----|-------4-3-|


riff 3 both guitars
|-------------------------------------------------------------------|
|-------------------------------------------------------------------|
|-------------------------------------------------------------------|
|-------------------------------------------------------------------|
|--3-----3-----3---2-----2-----2---3-----3-----3---0-----3-2-1-2-1--|
|--3-6-5-3-6-5-3-6-2-5-3-2-5-3-2-5-3-6-5-3-6-5-3-6-0-3-2-2-1-0-1-0--|
|----6-5---6-5---6---5-3---5-3---5---6-5---6-5---6---3-2-3-2-1-2-1--|
     - -   - -   -   - -   - -   -   - -   - -   -   - - - - - - -


riff 4(a) both guitars play 2 times all trem and palm muted.
|---------------------------------------------------------------------|
|---------------------------------------------------------------------|
|---------------------------------------------------------------------|
|---------------------------------------------------------------------|
|---------------------------------------------------------------------|
|----5-7-5-8-7-5-----7-8-7-10-8-7-----5-7-5-8-7-5-----7-8-7-10--------|
|--0-------------8-7--------------8-7-------------8-7----------8-7-5--|

riff 4(b) guitar 1-the "super harmony" all open trem
|-----------------------------------------------------------------------|
|-----------------------------------------------------------------------|
|-----------------------------------------------------------------------|
|-----------------------------------------------------------------------|
|-----------------------------------------------------------------------|
|----2-4-2-5-4-2-5-4-----4-5-4-7-5-4-----2-4-2-5-4-2-----2-4-2-5--------|
|--0-----------------5-4-------------5-4-------------5-4---------5-4-2--|

riff 4(b) guitar 2
|-------------------------------------------------------------------------------------------|
|-------------------------------------------------------------------------------------------|
|-------------------------------------------------------------------------------------------|
|-------------------------------------------------------------------------------------------|
|-------------------------------------------------------------------------------------------|
|----8-10-8-11-10-8-------10-11-10-13-11-10-------8-10-8-11-10-8-------10-11-10-13----------|
|--0----------------11-10-------------------11-10----------------11-10-------------11-10-8--|

riff 5 both guitars play harmonies for all 4 counts of this riff
but they are just the normal ones so the other guitar just plays
3 frets higher and all opens are the same on all harmonies for this song.
single notes are trem picked.
|------------------------------------------------------------------|
|------------------------------------------------------------------|
|------------------------------------------------------------------|
|------------------------------------------------------------------|
|--0--0--------0--0--------5--------0--0-------0--0----------------|
|--0--0--5-8-7-0--0--5-8-7---8-4-7--0--0-5-8-7-0--0-5-8-7---5-4----|
|--0--0--------0--0-----------------0--0-------0--0-------8-----7--|
   -  -        -  -                 -  -       -  -

the first b-down. Now, gtr 2 and the drums fall out for the first of this riff, and I 
will put stars
under the part that only gtr 1 plays, and I will put the tap part for this riff seperate 
from this
riff.
|----------------------------------------|
|----------------------------------------|
|----------------------------------------|
|----------------------------------------|
|----------3333-------------4444-3-------|
|--00--00--3333-0-----------2222-1--2-1--|
|--11--11-------1-------------------2-1--|
   **  **
   --  --       -                   - -

the tap to that b-down witch come after 2 plays of the b-down. I'm not sure how to
show these but I will do what I think you'll understand and you can e-mail me if
you don't get it, but it's just a constant tap and you'll just have to listen to the song
to hear when you change frets.
|----------------------------------------------|
|----------------------------------------------|
|----------------------------------------------|
|----------------------------------------------|
|----------------------------7t10--8t11--5t8---|
|--6t9--8t11--5t8--6t9--8t11-------------------|
|----------------------------------------------|

riff 6 all tremed and the other guitar plays the normal harmony
the whole time. but the opens are always opens.
|-------------------------------------------------------------------|
|-------------------------------------------------------------------|
|-------------------------------------------------------------------|
|-------------------------------------------------------------------|
|----------5-----5---------7---5-7---------5-----5------------------|
|----5-7-8---7-8---4-5-7-8---8-------5-7-8---7-8---4-5-7-8-5-4------|
|--0-------------------------------0---------------------------8-7--|

back to the beginning again
(gtr 1)
|------------------------------------------------|-------------------------------------|
|------------------------------------------------|-------------------------------------|
|------------------------------------------------|-------------------------------------|
|------------------------------------------------|-------------------------------------|
|------------------------------------------------|-------------------------------------|
|--3-2-1-5---3-2-1-5--4---3-2-1-5---3-2-1-5--6---|--3-2-1-5---3-2-1-2-1-0-1-2-1-4-3-2--|
|--3-2-1-----3-2-1--------3-2-1-----3-2-1--------|--3-2-1-----3-2-1-2-1-0-1-2-1-4-3-2--|
   - - -     - - -        - - -     - - -           - - -     - - - - - - - - - - - -
(gtr 2)
|------------------------------------------------|-------------------------------------|
|------------------------------------------------|-------------------------------------|
|------------------------------------------------|-------------------------------------|
|------------------------------------------------|-------------------------------------|
|--------3---------3--2---------3---------3--4---|--------3----------------------------|
|--3-2-1-----3-2-1--------3-2-1-----3-2-1--------|--3-2-1-----3-2-1-2-1-0-1-2-1-4-3-2--|
|--3-2-1-----3-2-1--------3-2-1-----3-2-1--------|--3-2-1-----3-2-1-2-1-0-1-2-1-4-3-2--|
   - - -     - - -        - - -     - - -           - - -     - - - - - - - - - - - -

riff 2 again with a slightly different ending on the 4th count    trem
|----------------------------------------------------------------|-----------|
|----------------------------------------------------------------|-----------|
|----------------------------------------------------------------|-----------|
|----------------------------------------------------------------|-----------|
|--3---------3---------3---2---------2---------2---3---------3---|-----------|
|------------------------4-----------------------3-------------4-|-1-0-4-----|
|----111-111---111-111-------000-000---000-000-------111-111-----|-------4-3-|


ending b-down
|-----------------------------------------------|
|-----------------------------------------------|
|-----------------------------------------------|
|-----------------------------------------------|
|-----------------------------------------------|
|--1111-2221-4441-2---1112-1-1112-1-4444-00000--|
|--1111-2221-4441-2---1112-1-1112-1-4444-00000--|
Tap to rate this tab
 
# A B C D E F G H I J K L M N O P Q R S T U V W X Y Z