Song name
# A B C D E F G H I J K L M N O P Q R S T U V W X Y Z

Carnivore - Inner Conflict tab

Tuned to Db

|------------|
|------------|
|------------|
|----9-------|
|----7--9----|
|-------7----|


|----------------------------|
|----------------------------|
|----------------------------|
|----------------------99----|
|---2---44----7-6-4----77-99-|
|---0---22----5-4-2-------77-|


|--------------------------------|
|--------------------------------|
|--------------------------------|
|----6--99---54--7-77------------|
|----4--77---32--5-55------------|
|--------------------------------|


|------------------------------|
|------------------------------|
|---------7--------------------|
|---9-----7----4---------------|
|---7-----5----2-----2---------|
|--------------2-----0---------|

|----------------------------------------------|
|----------------------------------------------|
|----------------------------------------------|
|----------------------------------------------|
|---6-7-8-9-8-7-6-5-----6-7-8-9-8-7-6-5--------|
|---4-5-6-7-6-5-4-3-----4-5-6-7-6-5-4-3--------|


|----------------------------------------|
|----------------------------------------|
|----------------------------------------|
|----------------------9-----------------|
|---2---44----7-6-4----7-9-10-12---------|
|---0---22----5-4-2------7-8--10---------|


|-----------------------------------------------------------|
|-----------------------------------------------------------|
|-----------------------------------------------------------|
|-----------------------------------------------------------|
|----------------------------5-------------------7--5-------|
|----0-3-0--5-6---0-3-0--5-6--6-----0-3-0--5-6-------7-6-5--|


|----------------------------------------------|
|----------------------------------------------|
|----------------------------------------------|
|----6----10--9-8-9----------------------------|
|----4----8---7-6-7-----99999------------------|
|-----------------------77777/-----2--3--------|
                                      ~ 

|--------------------------------------------------------------------------|
|----------------------------------12--------------------------------------|
|-----0--0-------0---0---------------12-----------------------------0---0--|
|----7--7-------0---4-4-------10---------10---9-12---10--9---------7---7---|
|---0--0---0-2-3---5---5-----8--8-------8----10---10--------------0---0----|
|-----------------------------------------------------------1-3------------|


Tap to rate this tab
# A B C D E F G H I J K L M N O P Q R S T U V W X Y Z