Song name
# A B C D E F G H I J K L M N O P Q R S T U V W X Y Z

Carnivore - Technophobia tab

Tune to Db


|------------------------------------------------|
|------------------------------------------------|
|------------------------------------------------|
|--2222222222222222222222222222222--4-3----------|
|-----------------------------------2-1-4-5-3----|
|---------------------------------------2-3-1----|

|-------------------------------------------------------------|
|-------------------------------------------------------------|
|------------------------------------------------2------------|
|----4--5-6-7/--3-4--5-6-7-10----4--5-6-7/--3----2------3-----|
|----2--3-4-5/--1-2--3-4-5-8-----2--3-4-5/--1----0--5---1-----|
|----2--3-4-5/--1-2--3-4-5-8-----2--3-4-5/--1-------3---------|

|------------------------------------------------|
|------------------------------------------------|
|------------------------------------------------|
|---------------------------------5----7---------|
|---------------------------------3----5---------|
|---00320035005600810--0032003500---00-----------|
    .................  ..........   ..

|--------------------------------------------|
|--------------------------------------------|
|--------------------------------------------|
|---6-4-4---2----4-------6-4-6---2---4-------|
|---4-2-6-2-0--4-2-2-----4-2-4-2-0-4-2-------|
|---------0----2---0-----------0---2---------|

|----------------------------|
|----------------------------|
|----------------------------|
|---6--9-8-9-8/---6----------|
|----------------------------|
|---4--7-6-7-6/---4----------|

|----------------------------|
|----------------------------|
|---6--9-8-9-8/---6----------|
|----------------------------|
|---4--7-6-7-6----4----------|
|----------------------------|


|----------------------------|
|----------------------------|
|-----------4-4-4------------|
|----222222-4-4-4------------|
|----000000-2-2-2------------|
|----------------------------|
Tap to rate this tab
# A B C D E F G H I J K L M N O P Q R S T U V W X Y Z