Song name
# A B C D E F G H I J K L M N O P Q R S T U V W X Y Z

Carnivore - Thermo Nuclear Warrior tab

Tune to Db


|-------------------------------------------------|
|-------------------------------------------------|
|-------------------------------------------------|
|-----------------------------5-4-5-4--2----------|
|--5/2/7/2--/4-5/2/7/2--/4-5--------------5/2/7/2-|
|-------------------------------------------------|


|-------------------------------|
|-------------------------------|
|-------------------------------| 
|-----2--------------------5/7--|
|-----2----5----7----5-----3/5--|
|--00---00-3-00-5-00-3-00-------|
   ..   ..   ..   ..   ..


|----------------------------------------------------------------------|
|----------------------------------------------------------------------|
|-------5------------------7-6--2---2----------------------------------|
|-------5------------------5-4--0---2-2-5------------------------------|
|--7----5----7--7/9/11--------------0-0-3-5--5-----------------7p5-----|
|--5---------5--5/7/9---------------------3--77777777777777777---------|
                                              ................


|-----------------------------------------------------------------
|-----------------------------------------------------------------
|-------5------------------7-6--2---2-----------------------------
|-------5------------------5-4--0---2-2-5-------------------------
|--7----5----7--7/9/11--------------0-0-3-5--5--------------------
|--5---------5--5/7/9---------------------3--77777777777777777----
                                              ................

 -------------------|
 -------------------|
 ---5-7-------------|
 ------5-7----5-----|
 ---------5-7-------|

|-------------------------------------------------|
|-------------------------------------------------| 
|--------------2-----5----0----2---5----0h2-------|
|------7-------2-2---5----0----2---5----0h2-------|
|3-----555555--0-0-----00---00---00---0-----------|
|111111-------------------------------------------|


|-------------------------------------|
|-------------------------------------|
|-------------------------------------|
|---0----------------5---8-7-5--------|
|3--0--5---5-4-3-2---3---6-5-3-5/7----|
|1--2--3---3-2-1-0-------------3/5----|


|---------------------------------------------------------|
|---------------------------------------------------------|
|---------------------------------------------------------|
|----6--6----6---4--6/----------8-----------------6-7-10--|
|----4--2----4---2--4/--4--7-7--6-----------6-7-9---------|
|-----------------------2--4-5--------4-5-8---------------|


|-------------------------------------------------------------|
|-------------------------------------------------------------|
|-------------------------------------------------------------|
|-------------------------------------------------------------|
|--444444444444-000000000000-----------------------5-6--------|
|----------------------------222222222222222222----3-4--------|

|------------------------------------|
|------------------------------------|
|-------------5---8---11---14--------|
|-------------4---7---10---13--------|
|--7--9-9----------------------------|
|--5--6-7----------------------------|


Tapping  
|-------12-6--3---13-6-3----14-6 3----15-6-3---15B---------|
|----------------------------------------------------------|
|----------------------------------------------------------|
|----------------------------------------------------------|
|----------------------------------------------------------|
|----------------------------------------------------------|


Tap to rate this tab
 
# A B C D E F G H I J K L M N O P Q R S T U V W X Y Z