Song name
# A B C D E F G H I J K L M N O P Q R S T U V W X Y Z

Carnivore - Race War tab

   
Carnivore: Race War

Riff 1:

|---------------------------------------------------|
|---------------------------------------------------|
|---------------------7-----------------------------|
|-99977777/91010109-5-7-7-99977777433333333---------|
|-99977777/91010109-5-5-7-99977777433333333---------|
|-77755555/7-8-8-87-3---5-77755555211111111---------|
                                  .........
Riff 1 Cont:

|-----------------------------------------------------|
|-----------------------------------------------------|
|---------------------7---------------------------7---|
|-99977777/91010109-5-7-7-9997777743333333333335--7-7-|
|-99977777/91010109-5-5-7-9997777743333333333335--5-7-|
|-77755555/7-8-8-87-3---5-7775555521111111111113----5-|
                                  .............


Riff 2:
|-------------------------------------------------|
|-------------------------------------------------|
|-------------------3-2--------------3-2----------|
|--------5-4--------3-2--------5-4---3-2---10-9-7-|
|--------5-4--------1-0--------5-4---1-0----8-7-5-|
|-000000-3-2-000000-----000000-3-2-0-----00-------|
  ......     ......     ......     .     ..

Chorus:

|-----------------------------------------------------------------|
|------5---4---5------0------0---------------------0-------0------|
|------------------------2-----------1-------1---------2----------|
|---7---------------2--------------4-----4-------2----------------|
|-4------4---4--4-0----0---0---0-1-----1---1---0-----0---0---0----|
|-----------------------------------------------------------------|

|---------------------------------------------------------------|
|------5---4---5------0------0---------------------0------------|
|------------------------2-----------1-------1------------------|
|---7---------------2--------------4-----4-------2---2--1h2h1---|
|-4------4---4--4-0----0---0---0-1-----1---1---0--------------2-|
|---------------------------------------------------------------|

End of Chorus:

|-----------------|
|---0---0-----0---|
|-----------0---2-|
|---------5-------|
|-0-------5-------|
|-----4---3-------|

Fast Bit:

(First couple times)

|---------------------------------------------|
|---------------------------------------8-77--|
|-7-7710-----7-7710-----7-7710----------8-77--|
|-7-7710-8-8-7-7710-8-8-7-7710-8-8-6-55-6-55--|
|-5-55-8-8-8-5-55-8-8-8-5-55-8-8-8-6-55-------|
|--------6-6--------6-6--------6-6-4-33-------|

(then)

|-------------------------------------------------|
|-------------------------------------------8-77--|
|-7-7710-1010-7-7710-1010-7-7710-1010-------8-77--|
|-7-7710-8-8--7-7710-8-8--7-7710-8-8---6-55-6-55--|
|-5-55-8------5-55-8------5-55-8-------6-55-------|
|--------------------------------------4-33-------|

Second Fast Part:

|--------------------|
|--------------------|
|-9-12-11-12---------|
|-9-12-11-10-10------|
|-7-10-9-----10-9129-|
|------------8--7107-|

End:

|-------|
|-------|
|11---9-|
|11---7-|
|-9-----|
|-------|
Tap to rate this tab
# A B C D E F G H I J K L M N O P Q R S T U V W X Y Z