Song name
# A B C D E F G H I J K L M N O P Q R S T U V W X Y Z

Carol Banawa - Tanging Yaman tab

Tinatamad na ko ituloy hahaha Sundan nyo na lng ung mga susunod ganun din naman 
un. Pag may mga tanong kayo message nyo na lng ako sa fb. Ilang beses ko na rin 
naman to natugtog sa simbahan kaya sure ako di2. Hope you enjoy it :)) God bless you all.

andymiguel_16@yahoo.com.ph

Intro:  

    G                                                            
e|--3------3----------------------------------------------------------------|
B|--3---3-----3-------------------------------------------------------------|
G|--4--4-4---4-4------------------------------------------------------------|
D|--5-----------------------------------------------------------------------|
A|--5-----------------------------------------------------------------------|
E|--3-----------------------------------------------------------------------|
   

Chorus:


    G                 CM7             D              Bm7
e|--3---3---7/8---7----0-----0---0--3-2--2--5--2------2-----2---------------|
B|--3------------------0--0-----------3---------------3--3-----3-4----------|
G|--4--4-4------0---0--0-0-0---0------2-2-2--0--------2-2-2---2-------------|
D|--3------------------2--------------0---------------4---------------------|
A|--5------------------3------------------------------2---------------------|
E|--3------------------0------------------------------2---------------------|
        Ikaw    ang    a--- king           Tanging




   Em          Am           D      D7     G
e|-0-------0---------0------2------2--2-------3----------------------|
B|-0--0--3---0-1--1-----1---3--3---1-----------3---------------------|
G|-0-0-0--0------2-2---2-0--2-2-0--2-2-------4--4--------------------|
D|-2------------------------0------0--------5----5-------------------|
A|-2-----------0---------------------------5-------------------------|
E|-0--------------------------------------3--------------------------|
     na  di  lubusang         ma - sumpungan



   G                 CM7             D              Bm7
e|--3---3---7/8---7----0-----0---0--3-2--2--5--2------2-----2---------------|
B|--3------------------0--0-----------3---------------3--3-----3-4----------|
G|--4--4-4------0---0--0-0-0---0------2-2-2--0--------2-2-2---2-------------|
D|--3------------------2--------------0---------------4---------------------|
A|--5------------------3------------------------------2---------------------|
E|--3------------------0------------------------------2---------------------|
       Ang  Ni----lik--ha    mong           karik-----tan

   Em          Am           D      D7     C          G
e|-0-------0---------0------2------2--2---0----0---------3---------------------|
B|-0--0--3---0-1--1-----1---3--3---1------1--1---0-----------------------------|
G|-0-0-0--0------2-2---2-0--2-2-0--2-2----0-0-0-0-------4----------------------|
D|-2------------------------0------0------2------------5-----------------------|
A|-2-----------0--------------------------3-----------5------------------------|
E|-0--------------------------------------0----------3-------------------------|
      Sulyap ng iyong,         ka--gandahan


Verse:


C   D/C          Bm7  Em
Ika'y, hanap sa twina
        AM7        D     D7    G-G7
Nitong pusong ikaw lamang ang saya
 CM7   D/C   Bm7
Sa ganda ng umaga,
Em       AM7    D7    G-G7
Nangungulila sa yo sinta
Tap to rate this tab
 
# A B C D E F G H I J K L M N O P Q R S T U V W X Y Z