Song name
# A B C D E F G H I J K L M N O P Q R S T U V W X Y Z

Carola Hggkvist - Karleksvals tab

--------------7--------------------------7--------|
-------/7--5----7--5--------/7--5--7--5----7--5---|
---2----------------------2-----------------------|
-2----------------------2-------------------------|
--------------------------------------------------|
--------------------------------------------------|

-7--7--7/8--8---5--5--5/7--7---3--3--3/5--3--2----2------|
------------------------------------------------5---4--5-|
---------------------------------------------------------|
---------------------------------------------------------|
---------------------------------------------------------|
---------------------------------------------------------|

-------3--5--3-----------------3--5--3----------------|
-5--7----------7--5--7-----7------------7--5--7--3----|
------------------------------------------------------|
------------------------------------------------------|
------------------------------------------------------|
------------------------------------------------------|

-------3--5--3----------------8--7--5--3--5----7------|
-5--7----------7--5--7----5------------------7--------|
------------------------------------------------------|
------------------------------------------------------|
------------------------------------------------------|
------------------------------------------------------|

I think this i correct, but i'm a noob, so i'm not sure :P
Tap to rate this tab
# A B C D E F G H I J K L M N O P Q R S T U V W X Y Z