Song name
# A B C D E F G H I J K L M N O P Q R S T U V W X Y Z

Carole King - Its Too Late tab

Tuning:

e|-3---1-0-1--0---------0-1-0-------------------0-1-0-3/5-0-3----------------|
B|-------------3-1----3-------3-1-3-1--------1-3-----------------------------|
G|------------------------------------2----2---------------------------------|
D|---------------------------------------------------------------------------|
A|---------------------------------------------------------------------------|
E|---------------------------------------------------------------------------|

e|---0-1-0---------------5-3-0-----------------------------------------------|
B|-3-------3-1-3-4-5-----------0-1-0-----------------------------------------|
G|---------------------------------------------------------------------------|
D|---------------------------------------------------------------------------|
A|---------------------------------------------------------------------------|
E|---------------------------------------------------------------------------|
Tap to rate this tab
 
# A B C D E F G H I J K L M N O P Q R S T U V W X Y Z