Song name
# A B C D E F G H I J K L M N O P Q R S T U V W X Y Z

Carolina Liar - When You Are Near tab

	When You Are Near
	Carolina Liar, Coming to terms
	Afinacion Estandar/Standar Tunning

	por/by: Luis Fernando Mejia Maradiaga
	10811148
	luiguim17@hotmail.com


	Introducción/Intro
	E|-----------------------------------------|
	B|-----12--10------12--10-----12--10-------|
	G|--9-----------9----------9----------9----|	x2
	D|-----------------------------------------|
	A|-----------------------------------------|
	E|-----------------------------------------|

	Verso/Verse I
	E|-----------------------------------------|
	B|--8---8---8---8---7---7---7---7----------|
	G|----7---7---7---7---7---7---7---7--------|	// a lo largo del verso
	D|-----------------------------------------|	// along the verse
	A|-----------------------------------------|
	E|-----------------------------------------|


	Coro/Chorus
	E|-----------------------------------------|
	B|-----12--10------12--10-----12--10-------|
	G|--9-----------9----------9----------9----|
	D|-----------------------------------------|
	A|-----------------------------------------|
	E|-----------------------------------------|

	*Este picking se repite a lo largo de la cancion.
	**The same picking all along the song


 *comentarios, dudas y correcciones al correo en el encabezado
 **Comments, questions and corrections to the e-mail above

		-----Ejoy the music-----
Tap to rate this tab
 
# A B C D E F G H I J K L M N O P Q R S T U V W X Y Z