Song name
# A B C D E F G H I J K L M N O P Q R S T U V W X Y Z

Caroline Martin - The Singer tab

http://www.carolinemartin.net/

Verse:

E|-2---2---2---2---2---2---|-5---5---5---4---0---4---|
A|-------------------------|-------------------------|
D|-------------------------|-------------------------|
G|-------------------------|-------------------------|
B|---2---2---2---2---2---2-|---0---0---0---0---0---0-|
e|-------------------------|-------------------------| x4

Chorus:

E|-7---7---7---5---5---5---|-4---4---4---5---5---5---|
A|-------------------------|-------------------------|
D|-------------------------|-------------------------|
G|---7---7---7---7---7---7-|---7---7---7---7---7---7-|
B|-------------------------|-------------------------|
e|-------------------------|-------------------------| x4

Pretty much
Tap to rate this tab
# A B C D E F G H I J K L M N O P Q R S T U V W X Y Z