Song name
# A B C D E F G H I J K L M N O P Q R S T U V W X Y Z

Carolines Spine - Again & Again tab

Again and Again
Carolines Spine
Dropped D 
Distortion
120 bpm
prevost3000@netscape.net
*-stop note
E  :-------------------|-------------------|------------------|
B  :-------------------|-------------------|------------------|
G  :-------------------|-------------------|------------------|
D  :-------------------|-------------------|------------------|
A  :--------5-*--------|---5-*-----------5-|*-----------5-*---|
D  :0-0-0-0---0-3-0-0-0|-0---0-3-0-0-0-0---|0-3-0-0-0-0---0-3-|
                                                              

                                                              
E  :-------------------|-------------------|------------------|
B  :-------------------|-------------------|------------------|
G  :-------------------|-------------------|------------------|
D  :-------------------|-------------------|------------------|
A  :-------------------|-------------------|------------------|
D  :-------------------|-------------------|------------------|

=============================================================================

   Ban d E nters Her e                                        
E  :-------------------|-------------------|------------------|
B  :-------------------|-------------------|------------------|
G  :-------------------|-------------------|------------------|
D  :-------------------|-------------------|------------------|
A  :--------5-*--------|---5-*-----------5-|*-----------5-*---|
D  :0-0-0-0---0-3-0-0-0|-0---0-3-0-0-0-0---|0-3-0-0-0-0---0-3-|
                                                              

                                                   *Mr . Newq 
E  :-------------------|-------------------|------------------|
B  :-------------------|-------------------|------------------|
G  :-------------------|-------------------|------------------|
D  :-------------------|-------------------|------------------|
A  :-------------------|-------------------|------------------|
D  :-------------------|-------------------|------------------|

=============================================================================

                                                                   
E  :-------------------------------|-------------------------------|
B  :-------------------------------|-------------------------------|
G  :-------------------------------|-------------------------------|
D  :-------------------------------|-------------------------------|
A  :------------5---*--------------|----5---*-------------------5--|
D  :0---0-0---0-----0---3---0---0-0|--0-----0---3---0---0-0---0----|
                                                                   

   u i s t   t o l d   m e   h e   p l a y s   G 1 1 & B 1 0 + 1 1 
E  :5-5-5-5-5-5-5-5-5-5-5-5-5-5-5-5|5-5-5-5-5-5-5-5-6-6-6-6-6-6-6-6|
B  :7-7-7-7-7-7-7-7-7-7-7-7-7-7-7-7|7-7-7-7-7-7-7-7-7-7-7-7-7-7-7-7|
G  :-------------------------------|-------------------------------|
D  :-------------------------------|-------------------------------|
A  :-------------------------------|-------------------------------|
D  :-------------------------------|-------------------------------|

=============================================================================

 
                                                                   
E  :-------------------------------|-------------------------------|
B  :-------------------------------|-------------------------------|
G  :-------------------------------|-------------------------------|
D  :-------------------------------|-------------------------------|
A  :*-------------------5---*------|------------5---*--------------|
D  :0---3---0---0-0---0-----0---3--|0---0-0---0-----0---3---0---0-0|
                                                                   

   + 1 3 ,   b u t   I   l i k e   i t   h e r e ,   e a s i e r   
E  :8-8-6-6-5-5-5-5-5-5-5-5-5-5-5-5|6-6-6-6-6-6-6-6-8-8-6-6-5-5-5-5|
B  :7-7-7-7-7-7-7-7-7-7-7-7-7-7-7-7|7-7-7-7-7-7-7-7-7-7-7-7-7-7-7-7|
G  :-------------------------------|-------------------------------|
D  :-------------------------------|-------------------------------|
A  :-------------------------------|-------------------------------|
D  :-------------------------------|-------------------------------|

=============================================================================

                                                                   
E  :-------------------------------|-------------------------------|
B  :-------------------------------|-------------------------------|
G  :-------------------------------|-------------------------------|
D  :-------------------------------|-------------------------------|
A  :----5---*-------------------5--|*-------------------5---*------|
D  :--0-----0---3---0---0-0---0----|0---3---0---0-0---0-----0---3--|
                                                                   

   t o   p i c k   w i t h o u t   h i t t i n g   o t h e r   s t 
E  :5-5-5-5-5-5-5-5-3-3-3-3-3-3-3-3|3-3-3-3-3-3-3-3-3-3-3-3-3-3-3-3|
B  :7-7-7-7-7-7-7-7-5-5-5-5-5-5-5-5|5-5-5-5-5-5-5-5-5-5-5-5-5-5-5-5|
G  :-------------------------------|-------------------------------|
D  :-------------------------------|-------------------------------|
A  :-------------------------------|-------------------------------|
D  :-------------------------------|-------------------------------|

=============================================================================

   Vers e   1                                             
E  :--------------------------|---------------------------|
B  :3-------------------------|---------------------------|
G  :2-------------------------|---------------------------|
D  :0-------------------------|---------------------------|
A  :0-------------------------|---------------------------|
D  :--------------------------|---------------------------|
                                                          

   ring s .      {q u i c k   str u m s ,   you   k n o w 
E  :2--2-2-2-2-2-3-3-3-3-3-3-3|2-2-2-2-2-2-2-0-0-0-0-0-0-0|
B  :3--3-3-3-3-3-3-3-3-3-3-3-3|3-3-3-3-3-3-3-3-3-3-3-3-3-3|
G  :2--2-2-2-2-2-2-2-2-2-2-2-2|2-2-2-2-2-2-2-2-2-2-2-2-2-2|
D  :--------------------------|---------------------------|
A  :--------------------------|---------------------------|
D  :--------------------------|---------------------------|

=============================================================================

 
                                                           
E  :---------------------------|---------------------------|
B  :---------------------------|---------------------------|
G  :---------------------------|---------------------------|
D  :---------------------------|---------------------------|
A  :---------------------------|---------------------------|
D  :---------------------------|---------------------------|
                                                           

    ho w   i t   goe s . }                                 
E  :2-2-2-2-2-2-2-3-3-3-3-3-3-3|2-2-2-2-2-2-2-0-0-0-0-0-0-0|
B  :3-3-3-3-3-3-3-3-3-3-3-3-3-3|3-3-3-3-3-3-3-3-3-3-3-3-3-3|
G  :2-2-2-2-2-2-2-2-2-2-2-2-2-2|2-2-2-2-2-2-2-2-2-2-2-2-2-2|
D  :---------------------------|---------------------------|
A  :---------------------------|---------------------------|
D  :---------------------------|---------------------------|

=============================================================================

                                                           
E  :---------------------------|---------------------------|
B  :---------------------------|---------------------------|
G  :---------------------------|---------------------------|
D  :---------------------------|---------------------------|
A  :---------------------------|---------------------------|
D  :---------------------------|---------------------------|
                                                           

                                                           
E  :2-2-2-2-2-2-2-3-3-3-3-3-3-3|2-2-2-2-2-2-2-3-3-3-3-3-3-3|
B  :3-3-3-3-3-3-3-3-3-3-3-3-3-3|3-3-3-3-3-3-3-3-3-3-3-3-3-3|
G  :2-2-2-2-2-2-2-2-2-2-2-2-2-2|2-2-2-2-2-2-2-2-2-2-2-2-2-2|
D  :---------------------------|---------------------------|
A  :---------------------------|---------------------------|
D  :---------------------------|---------------------------|

=============================================================================

                                                           
E  :---------------------------|---------------------------|
B  :---------------------------|---------------------------|
G  :---------------------------|---------------------------|
D  :---------------------------|---------------------------|
A  :---------------------------|---------------------------|
D  :---------------------------|---------------------------|
                                                           

                                                           
E  :2-2-2-2-2-2-2-3-3-3-3-3-3-3|2-2-2-2-2-2-2-0-0-0-0-0-0-0|
B  :3-3-3-3-3-3-3-3-3-3-3-3-3-3|3-3-3-3-3-3-3-3-3-3-3-3-3-3|
G  :2-2-2-2-2-2-2-2-2-2-2-2-2-2|2-2-2-2-2-2-2-2-2-2-2-2-2-2|
D  :---------------------------|---------------------------|
A  :---------------------------|---------------------------|
D  :---------------------------|---------------------------|

=============================================================================

 
                                                           
E  :---------------------------|---------------------------|
B  :---------------------------|---------------------------|
G  :---------------------------|---------------------------|
D  :---------------------------|---------------------------|
A  :---------------------------|---------------------------|
D  :---------------------------|---------------------------|
                                                           

                                                           
E  :2-2-2-2-2-2-2-3-3-3-3-3-3-3|2-2-2-2-2-2-2-0-0-0-0-0-0-0|
B  :3-3-3-3-3-3-3-3-3-3-3-3-3-3|3-3-3-3-3-3-3-3-3-3-3-3-3-3|
G  :2-2-2-2-2-2-2-2-2-2-2-2-2-2|2-2-2-2-2-2-2-2-2-2-2-2-2-2|
D  :---------------------------|---------------------------|
A  :---------------------------|---------------------------|
D  :---------------------------|---------------------------|

=============================================================================

                                                           
E  :---------------------------|---------------------------|
B  :---------------------------|---------------------------|
G  :---------------------------|---------------------------|
D  :---------------------------|---------------------------|
A  :---------------------------|---------------------------|
D  :---------------------------|---------------------------|
                                                           

                                                           
E  :2-2-2-2-2-2-2-3-3-3-3-3-3-3|2-2-2-2-2-2-2-3-3-3-3-3-3-3|
B  :3-3-3-3-3-3-3-3-3-3-3-3-3-3|3-3-3-3-3-3-3-3-3-3-3-3-3-3|
G  :2-2-2-2-2-2-2-2-2-2-2-2-2-2|2-2-2-2-2-2-2-2-2-2-2-2-2-2|
D  :---------------------------|---------------------------|
A  :---------------------------|---------------------------|
D  :---------------------------|---------------------------|

=============================================================================

   *i will wander,  i will fall....                   *you just have t 
E  :----------------|----------------|----------------|----------------|
B  :2-2-2-2-2-2-2-2-|5-5-5-5-5-5-5-5-|8-8-8-8-8-8-8-8-|5---------------|
G  :2-2-2-2-2-2-2-2-|5-5-5-5-5-5-5-5-|7-7-7-7-7-7-7-7-|4---------------|
D  :2-2-2-2-2-2-2-2-|5-5-5-5-5-5-5-5-|5-5-5-5-5-5-5-5-|2---------------|
A  :0-0-0-0-0-0-0-0-|3-3-3-3-3-3-3-3-|5-5-5-5-5-5-5-5-|2---------------|
D  :----------------|----------------|5-5-5-5-5-5-5-5-|2---------------|
   A                C                G                E                

   not exact timing  here either.... ..               *                
E  :----------------|----------------|----------------|----------------|
B  :2-2-2-2-2-2-2-2-|5-5-5-5-5-5-5-5-|8-8-8-8-8-8-8-8-|----------------|
G  :2-2-2-2-2-2-2-2-|5-5-5-5-5-5-5-5-|7-7-7-7-7-7-7-7-|----------------|
D  :2-2-2-2-2-2-2-2-|5-5-5-5-5-5-5-5-|5-5-5-5-5-5-5-5-|2---------------|
A  :0-0-0-0-0-0-0-0-|3-3-3-3-3-3-3-3-|5-5-5-5-5-5-5-5-|2---------------|
D  :----------------|----------------|5-5-5-5-5-5-5-5-|2---------------|

=============================================================================

 
   o   s a y   t h e   w o r d !                                   
E  :-------------------------------|-------------------------------|
B  :-------------------------------|-------------------------------|
G  :-------------------------------|-------------------------------|
D  :-------------------------------|-------------------------------|
A  :------------5---*--------------|----5---*-------------------5--|
D  :0---0-0---0-----0---3---0---0-0|--0-----0---3---0---0-0---0----|
                                                                   

                                                                   
E  :5-5-5-5-5-5-5-5-5-5-5-5-5-5-5-5|5-5-5-5-5-5-5-5-6-6-6-6-6-6-6-6|
B  :7-7-7-7-7-7-7-7-7-7-7-7-7-7-7-7|7-7-7-7-7-7-7-7-7-7-7-7-7-7-7-7|
G  :-------------------------------|-------------------------------|
D  :-------------------------------|-------------------------------|
A  :-------------------------------|-------------------------------|
D  :-------------------------------|-------------------------------|

=============================================================================

                                                               
E  :-------------------------------|2--------------------------|
B  :-------------------------------|3--------------------------|
G  :-------------------------------|2--------------------------|
D  :-------------------------------|0--------------------------|
A  :*-------------------5---*------|0--------------------------|
D  :0---3---0---0-0---0-----0---3--|---------------------------|
                                                               

                                                               
E  :8-8-6-6-5-5-5-5-5-5-5-5-5-5-5-5|2-2-2-2-2-2-2-3-3-3-3-3-3-3|
B  :7-7-7-7-7-7-7-7-7-7-7-7-7-7-7-7|3-3-3-3-3-3-3-3-3-3-3-3-3-3|
G  :-------------------------------|2-2-2-2-2-2-2-2-2-2-2-2-2-2|
D  :-------------------------------|---------------------------|
A  :-------------------------------|---------------------------|
D  :-------------------------------|---------------------------|

=============================================================================

                                                           
E  :---------------------------|---------------------------|
B  :---------------------------|---------------------------|
G  :---------------------------|---------------------------|
D  :---------------------------|---------------------------|
A  :---------------------------|---------------------------|
D  :---------------------------|---------------------------|
                                                           

                                                           
E  :2-2-2-2-2-2-2-0-0-0-0-0-0-0|2-2-2-2-2-2-2-3-3-3-3-3-3-3|
B  :3-3-3-3-3-3-3-3-3-3-3-3-3-3|3-3-3-3-3-3-3-3-3-3-3-3-3-3|
G  :2-2-2-2-2-2-2-2-2-2-2-2-2-2|2-2-2-2-2-2-2-2-2-2-2-2-2-2|
D  :---------------------------|---------------------------|
A  :---------------------------|---------------------------|
D  :---------------------------|---------------------------|

=============================================================================

 
                                                           
E  :---------------------------|---------------------------|
B  :---------------------------|---------------------------|
G  :---------------------------|---------------------------|
D  :---------------------------|---------------------------|
A  :---------------------------|---------------------------|
D  :---------------------------|---------------------------|
                                                           

                                                           
E  :2-2-2-2-2-2-2-0-0-0-0-0-0-0|2-2-2-2-2-2-2-3-3-3-3-3-3-3|
B  :3-3-3-3-3-3-3-3-3-3-3-3-3-3|3-3-3-3-3-3-3-3-3-3-3-3-3-3|
G  :2-2-2-2-2-2-2-2-2-2-2-2-2-2|2-2-2-2-2-2-2-2-2-2-2-2-2-2|
D  :---------------------------|---------------------------|
A  :---------------------------|---------------------------|
D  :---------------------------|---------------------------|

=============================================================================

                               *i will wander,  i will fall....  
E  :---------------------------|----------------|----------------|
B  :---------------------------|2-2-2-2-2-2-2-2-|5-5-5-5-5-5-5-5-|
G  :---------------------------|2-2-2-2-2-2-2-2-|5-5-5-5-5-5-5-5-|
D  :---------------------------|2-2-2-2-2-2-2-2-|5-5-5-5-5-5-5-5-|
A  :---------------------------|0-0-0-0-0-0-0-0-|3-3-3-3-3-3-3-3-|
D  :---------------------------|----------------|----------------|
                               A                C                

                               not exact timing  here either.... 
E  :2-2-2-2-2-2-2-3-3-3-3-3-3-3|----------------|----------------|
B  :3-3-3-3-3-3-3-3-3-3-3-3-3-3|2-2-2-2-2-2-2-2-|5-5-5-5-5-5-5-5-|
G  :2-2-2-2-2-2-2-2-2-2-2-2-2-2|2-2-2-2-2-2-2-2-|5-5-5-5-5-5-5-5-|
D  :---------------------------|2-2-2-2-2-2-2-2-|5-5-5-5-5-5-5-5-|
A  :---------------------------|0-0-0-0-0-0-0-0-|3-3-3-3-3-3-3-3-|
D  :---------------------------|----------------|----------------|

=============================================================================

                    *you just have t o   s a y   t h e   w o r d !   
E  :----------------|----------------|-------------------------------|
B  :8-8-8-8-8-8-8-8-|5---------------|-------------------------------|
G  :7-7-7-7-7-7-7-7-|4---------------|-------------------------------|
D  :5-5-5-5-5-5-5-5-|2---------------|-------------------------------|
A  :5-5-5-5-5-5-5-5-|2---------------|------------5---*--------------|
D  :5-5-5-5-5-5-5-5-|2---------------|0---0-0---0-----0---3---0---0-0|
   G                E                                                

   ..               *                                                
E  :----------------|----------------|5-5-5-5-5-5-5-5-5-5-5-5-5-5-5-5|
B  :8-8-8-8-8-8-8-8-|----------------|7-7-7-7-7-7-7-7-7-7-7-7-7-7-7-7|
G  :7-7-7-7-7-7-7-7-|----------------|-------------------------------|
D  :5-5-5-5-5-5-5-5-|2---------------|-------------------------------|
A  :5-5-5-5-5-5-5-5-|2---------------|-------------------------------|
D  :5-5-5-5-5-5-5-5-|2---------------|-------------------------------|

=============================================================================

 
                                                                   
E  :-------------------------------|-------------------------------|
B  :-------------------------------|-------------------------------|
G  :-------------------------------|-------------------------------|
D  :-------------------------------|-------------------------------|
A  :----5---*-------------------5--|*-------------------5---*------|
D  :--0-----0---3---0---0-0---0----|0---3---0---0-0---0-----0---3--|
                                                                   

                                                                   
E  :5-5-5-5-5-5-5-5-6-6-6-6-6-6-6-6|8-8-6-6-5-5-5-5-5-5-5-5-5-5-5-5|
B  :7-7-7-7-7-7-7-7-7-7-7-7-7-7-7-7|7-7-7-7-7-7-7-7-7-7-7-7-7-7-7-7|
G  :-------------------------------|-------------------------------|
D  :-------------------------------|-------------------------------|
A  :-------------------------------|-------------------------------|
D  :-------------------------------|-------------------------------|

#This file is the author's own work and represents their interpretation of the #
#song. You may only use this file for private study, scholarship, or research. #
Tap to rate this tab
# A B C D E F G H I J K L M N O P Q R S T U V W X Y Z