Song name
# A B C D E F G H I J K L M N O P Q R S T U V W X Y Z

Carotirionaen - Never Ending Dream tab

E:-----0--1-----0-----0-----------------------------|
H:--3--------------3-----1--------1--3---------1--3-|
G:-----------------------------4------------3-------|
D:--------------------------------------------------|
A:--------------------------------------------------|
E:--------------------------------------------------|

E:-----0--1-----5----3--0------------0--------------|
H:--3------------------------3--1-------3--1--------|
G:---------------------------------------------3----|
D:--------------------------------------------------|
A:--------------------------------------------------|
E:--------------------------------------------------|

E:-----12--13----12----12----------------------------|
H:--15--------------15-----13------13--15-----13--15-|
G:------------------------------16---------15--------|
D:---------------------------------------------------|
A:---------------------------------------------------|
E:---------------------------------------------------|

E:-----12--13----17---15--12-----------12------------|
H:--15-------------------------15--13------15--13-10-|
G:---------------------------------------------------|
D:---------------------------------------------------|
A:---------------------------------------------------|
E:---------------------------------------------------|

E:-----0--1-----0-----0-----------------------------|
H:--3--------------3-----1--------1--3---------1--3-|
G:-----------------------------4------------3-------|
D:--------------------------------------------------|
A:--------------------------------------------------|
E:--------------------------------------------------|

E:-----0--1-----5----3--0------------0--------------|
H:--3------------------------3--1-------3--1--------|
G:---------------------------------------------3----|
D:--------------------------------------------------|
A:--------------------------------------------------|
E:--------------------------------------------------|

E:--6--5--3--1--0-----------5--3--1--0--------------|
H:-----------------3--1-----------------3--1--------|
G:-----------------------4--------------------4--3--|
D:--------------------------------------------------|
A:--------------------------------------------------|
E:--------------------------------------------------|

E:--6--5--3--1--0-----------5--3--1--0--------------|
H:-----------------3--1-----------------3--1--------|
G:-----------------------4--------------------4--3--|
D:--------------------------------------------------|
A:--------------------------------------------------|
E:--------------------------------------------------|
Tap to rate this tab
# A B C D E F G H I J K L M N O P Q R S T U V W X Y Z