Song name
# A B C D E F G H I J K L M N O P Q R S T U V W X Y Z

Carousel Kings - Maxs Song tab

Here is the TAB's to this song. Know they are a little shaky and not 100%, but 
hope it helps. Please check out this YouTube video for the strumming patterns 
(http://www.youtube.com/watch?v=e6bzQpc3Uiw). Enjoy

Tuning: Drop C#
e->D#
B->A#
G->F#
D->C#
A->G#
E->C#


D#||-------------------------|------------------------|-----------------------||
A#||-------------------------|------------------------|-----------------------||
F#||*-------14----7----11----|-------14----7----11----|--7---------7----9----*||
C#||*--7---------------------|--5---------------------|-------5--------------*||
G#||---7----12----5-----9----|--5----12----5-----9----|--5----5----5----7-----||
C#||---7---------------------|--5---------------------|-------5---------------||


  
-------------------||--------------|-------------------|------||
-------------------||--------------|-------------------|------||
-------------------||*-------------|-------------------|--7--*||
--0----------------||*--0----5--7--|--7--5-------5--7--|-----*||
--0----------------||---0----5--7--|--7--5-------5--7--|--5---||
--0----------------||---0----5--7--|--7--5-------5--7--|------||


  "Take this bottle"                             "(To) stop this"            
---------------------|-------------|------------------|-------------------|
---------------------|-------------|------------------|-------------------|
---------------------|--14--7--11--|------------------|-------------------|
--0------------------|-------------|--7--9--7--10--9--|--5----------------|
--0------------------|--12--5---9--|--7--9--7--10--9--|--5----------------|
--0------------------|-------------|--7--9--7--10--9--|--5----------------|

-------------------|-------------|-----|----------------------------|
-------------------|-------------|-----|----------------------------|
-------------------|--14--7--11--|-----|----------------------------|
--0----------------|-------------|--5--|--0--0-----0--0-0-0--0-0-0--|
--0----------------|--12--5---9--|--5--|--0--0-----0--0-0-0--0-0-0--|
--0----------------|-------------|--5--|--0--0-----0--0-0-0--0-0-0--|

----------------------------|----------------------------|
----------------------------|----------------------------|
----------------------------|----------------------------|
--5--5-----5--5-5-5--5-5-5--|--5--5-----5--9-9-9--7-7-7--|
--5--5-----5--5-5-5--5-5-5--|--5--5-----5--9-9-9--7-7-7--|
--5--5-----5--5-5-5--5-5-5--|--5--5-----5--9-9-9--7-7-7--|

          
----------------------------------|-------------------|-------------------|
----6---6-6-7-6---10---8----------|-------------------|-------------------|
--7---7---------7----7---10-7-9-7-|--7----------------|-------------------|
----------------------------------|-------------------|--0----------------|
----------------------------------|-------------------|--0----------------|
----------------------------------|-------------------|--0----------------|

  
|-------------------|-------|-------------------|------------------|-----|
|-------------------|-------|-------------------|------------------|-----|
|*--14----7----9----|--7----|--7----------------|--14----7----9----|--7--|
|*------------------|-------|-------------------|------------------|-----|
|---12----5----7----|--5----|--5----------------|--12----5----7----|--5--|
|-------------------|-------|-------------------|------------------|-----|


                      Drum Break x2                                        
--------------------||--------------------|--------------------||
--------------------||--------------------|--------------------||
--7----------------*||*-------------------|-------------------*||
-------------------*||*--0----------------|--5----------------*||
--5-----------------||---0----------------|--5-----------------||
--------------------||---0----------------|--5-----------------||


  "This is who I am"               
---------------------|-------||
---------------------|-------||
---------------------|-------||
--0------------------|--5----||  Repeat as many times as necessary 
--0------------------|--5----||
--0------------------|--5----||
Tap to rate this tab
# A B C D E F G H I J K L M N O P Q R S T U V W X Y Z