Song name
# A B C D E F G H I J K L M N O P Q R S T U V W X Y Z

Carpark North - Save Me From Myself tab

Carpark North - Save Me From Myself

Album: Lost
Instrument: Guitar
Tuning: eBGDAE

Tabbed By: Vh12th

Hope you enjoy this song, if you find any problems you'll probably figure it out yourself. Enjoy!

Intro

1. Guitar

x2
e||--x-x-x-x----------------------------------------------------------------|
B||--x-x-x-x----------------------------------------------------------------|
G||--x-x-x-x-11-11----11-11---11-11---11-11---11-11-----11-11---------------|
D||--x-x-x-x- - - -9-9-----9-9-----9-9-----9-9-----11-11-----9-9---8-9-11-9-|
A||--x-x-x-x-----------------------------------------------------11---------|
E||--x-x-x-x----------------------------------------------------------------|

2. Guitar

e||--x-x-x-x-4-4-4-4-4-4/7-7-7-7-7/9 -2-2-2-2-2-0-0-0-0----------|
B||--x-x-x-x-4-4-4-4-4-4/7-7-7-7-7/9 -2-2-2-2-2-0-0-0-0----------|
G||--x-x-x-x-4-4-4-4-4-4/7-7-7-7-7/9 -2-2-2-2-2-1-1-1-1----------|
D||--x-x-x-x-6-6-6-6-6-8/9-9-9-9-9/11-4-4-4-4-4-2-2-2-2----------|         x2
A||--x-x-x-x-6-6-6-6-6-8/9-9-9-9-9/11-4-4-4-4-4-2-2-2-2----------|
E||--x-x-x-x-4-4-4-4-4-6/7-7-7-7-7/9 -2-2-2-2-2-0-0-0-0----------|


Verse

pretty much the same, but slightly different rhythm sections

e||--x-x-x-x-4-4-4-4-4-4/7-7-7-7-7/9 -2-2-2-2-2-0-0-0-0----------|
B||--x-x-x-x-4-4-4-4-4-4/7-7-7-7-7/9 -2-2-2-2-2-0-0-0-0----------|
G||--x-x-x-x-4-4-4-4-4-4/7-7-7-7-7/9 -2-2-2-2-2-1-1-1-1----------|
D||--x-x-x-x-6-6-6-6-6-8/9-9-9-9-9/11-4-4-4-4-4-2-2-2-2----------|         x2
A||--x-x-x-x-6-6-6-6-6-8/9-9-9-9-9/11-4-4-4-4-4-2-2-2-2----------|
E||--x-x-x-x-4-4-4-4-4-6/7-7-7-7-7/9 -2-2-2-2-2-0-0-0-0----------|


Chorus
You Save me, Save me from Myself, there is no one else
I lean on

e||--2-2-2-2-2-2-2-2-2-2-2-2-2-2-2-4-4-4-0-0-0-2-2-2-2-2-|
B||--2-2-2-2-2-2-2-2-2-2-2-2-2-2-2-4-4-4-0-0-0-2-2-2-2-2-|
G||--4-4-4-4-4-4-6-6-6-6-6-4-4-4-4-4-4-4-1-1-1-4-4-2-2-2-|
D||--4-4-4-4-4-4-4-4-4-4-4-4-4-4-4-6-6-6-2-2-2-4-4-4-4-4-|
A||--2-2-2-2-2-2-2-2-2-2-2-2-2-2-2-6-6-6-2-2-2-2-2-4-4-4-|
E||--------------------------------4-4-4-0-0-0-----2-2-2-|

You Save me, You save me from myself
There is no one else to set me free

e||--2-2-2-2-2-7-7-7-4-4-4-4-4-4-4-4-4-7-7-7-7-2-|
B||--2-2-2-2-2-7-7-7-4-4-4-4-4-4-4-4-4-7-7-7-7-2-|
G||--4-4-4-4-4-9-9-9-4-4-4-4-4-6-6-6-6-9-9-9-9-4-|
D||--4-4-4-4-4-9-9-9-6-6-6-6-6-6-6-6-6-9-9-9-9-4-|
A||--2-2-2-2-2-7-7-7-6-6-6-6-6-4-4-4-4-7-7-7-7-2-|
E||------------------4-4-4-4-4-------------------|

Verse

e||--x-x-x-x-4-4-4-4-4-4/7-7-7-7-7/9 -2-2-2-2-2-0-0-0-0----------|
B||--x-x-x-x-4-4-4-4-4-4/7-7-7-7-7/9 -2-2-2-2-2-0-0-0-0----------|
G||--x-x-x-x-4-4-4-4-4-4/7-7-7-7-7/9 -2-2-2-2-2-1-1-1-1----------|
D||--x-x-x-x-6-6-6-6-6-8/9-9-9-9-9/11-4-4-4-4-4-2-2-2-2----------|         x2
A||--x-x-x-x-6-6-6-6-6-8/9-9-9-9-9/11-4-4-4-4-4-2-2-2-2----------|
E||--x-x-x-x-4-4-4-4-4-6/7-7-7-7-7/9 -2-2-2-2-2-0-0-0-0----------|

Don't look down!
Don't look down!

1. guitar

e||----------------------------------------------|
B||----------------------------------------------|
G||--11-11----11-11----11-11----11-11------------|
D||-------9-9------9-9------9-9------------------|           x2
A||----------------------------------------------|
E||----------------------------------------------|



Solo
2. guitar

e||--4-4-4-4-4--9--9--9--9-4-4-4-4-4-2-2-2-2-2-4-4-4-4-4--9--9--9--9--9-|
B||--4-4-4-4-4--9--9--9--9-4-4-4-4-4-2-2-2-2-2-4-4-4-4-4--9--9--9--9--9-|
G||--6-6-6-6-6-11-11-11-11-4-4-4-4-4-4-4-4-4-4-6-6-6-6-6-11-11-11-11-11-|
D||--6-6-6-6-6-11-11-11-11-6-6-6-6-6-4-4-4-4-4-6-6-6-6-6-11-11-11-11-11-|
A||--4-4-4-4-4--9--9--9--9-6-6-6-6-6-2-2-2-2-2-4-4-4-4-4--9--9--9--9--9-|
E||------------------------4-4-4-4-4------------------------------------|



1. guitar

Clean
E||---1--1--------1--1--------|--1--1--------1--1--------|
B||---------0--0--------0--0--|--------0--0--------0--0--|
G||*--------------------------|--------------------------|
D||*--------------------------|--------------------------|
A||---------------------------|--------------------------|
E||---------------------------|--------------------------|

    --2--2--------2--2--------|--2--2--------2--2--------|
    --------0--0--------0--0--|--------0--0--------0--0--|
    --------------------------|--------------------------|
    --------------------------|--------------------------|
    --------------------------|--------------------------|
    --------------------------|--------------------------|

    --6--6--------6--6--------|--6--6--------6--6--------|
    --------0--0--------0--0--|--------0--0--------0--0--|
    --------------------------|--------------------------|
    --------------------------|--------------------------|
    --------------------------|--------------------------|
    --------------------------|--------------------------|

    --7--7--------7--7--------|--7--7--------7-----7-----||
    --------6--6--------6--6--|--------6--6-----6--------||
    --------------------------|-------------------------*||
    --------------------------|-------------------------*||
    --------------------------|--------------------------||
    --------------------------|--------------------------||

    Overdrive
    --1--1--------1--1--------|--1--1--------1--1--------|
    --------0--0--------0--0--|--------0--0--------0--0--|
    --------------------------|--------------------------|
    --------------------------|--------------------------|
    --------------------------|--------------------------|
    --------------------------|--------------------------|


    --2--2--------0--0--------|--------------------------|
    --------------------------|--4--4--------2--2--------|
    --------4--4--------4--4--|--------4--4--------4--4--|
    --------------------------|--------------------------|
    --------------------------|--------------------------|
    --------------------------|--------------------------|

 Phaser effect
    --2--2--------0--0--------|--------------------------||
    --------------------------|--4--4--------2--2--------||
    --------4--4--------4--4--|--------4--4--------4--4--||
    --------------------------|--------------------------||
    --------------------------|--------------------------||
    --------------------------|--------------------------||


Outro Verse

You Save me, Save me from myself
there is no one else
I lean on

e||-2-2-2-2-2-2-4-4-4-4-4-4-6-6-6-6-7-7-7-7-|
B||-2-2-2-2-2-2-4-4-4-4-4-4-6-6-6-6-7-7-7-7-|
G||-4-4-4-4-4-4-6-6-6-6-6-6-8-8-8-8-9-9-9-9-|
D||-4-4-4-4-4-4-6-6-6-6-6-6-8-8-8-8-9-9-9-9-|
A||-2-2-2-2-2-2-4-4-4-4-4-4-6-6-6-6-7-7-7-7-|
E||-----------------------------------------|

You save me, save me from myself
There is no one else to set me free

e||--2-2-2-2-2-7-7-7-4-4-4-4-4-4-4-4-4-7-7-7-7-2-|
B||--2-2-2-2-2-7-7-7-4-4-4-4-4-4-4-4-4-7-7-7-7-2-|
G||--4-4-4-4-4-9-9-9-4-4-4-4-4-6-6-6-6-9-9-9-9-4-|
D||--4-4-4-4-4-9-9-9-6-6-6-6-6-6-6-6-6-9-9-9-9-4-|
A||--2-2-2-2-2-7-7-7-6-6-6-6-6-4-4-4-4-7-7-7-7-2-|
E||------------------4-4-4-4-4-------------------|


Lyrics:

Lost
My heart is hard as stone
On my own
Alone, I carry it home

Gone
I used to waste the days
So distraught,
I thought:
I'm changing my ways

Now you're changing my ways

You save me
Save me from myself
There is no one else
I'd lean on
Save me
You save me from myself
There is no one else to set me free

Start
The start of something new
Is what I find
When I'm
Just looking at you

Lift
You lift me off the ground
Keep holding my hand
I won't land
Won't even look down

Don't look down

You save me
Save me from myself
There is no one else
I'd lean on
Save me
You save me from myself
There is no one else to set me free


if you're in Tensing, have fun with this, it works perfectly with the choir
Tap to rate this tab
 
# A B C D E F G H I J K L M N O P Q R S T U V W X Y Z