Song name
# A B C D E F G H I J K L M N O P Q R S T U V W X Y Z

Carpark North - Beasts tab

Band: Carpark North
Album: All Things To All People
Song: The Beasts 

Tuning: Standard (E A D G B E)

This is my first tab ever.


w/delay
|-------------------------------|---------------------------------|
|-------8--------8--------------|--------9---------9--------------|
|-------------------------------|---------------------------------|
|----9--------9-----10-10--[x4]-|----10--------10-----11-11--[x2]-|
|-7--------7--------------------|-8---------8---------------------|
|-------------------------------|---------------------------------|

|-----------------------------------|---------------------------------|
|---------12---------12-------------|--------7--------7---------------|
|-----------------------------------|---------------------------------|
|-----13---------13-----14-14--[x2]-|----8---------8-----9-9-----[x2]-|
|-11---------11---------------------|-6---------6---------------------|
|-----------------------------------|---------------------------------|

|-----------------------------------|
|--------10---------10--------------|
|-----------------------------------|
|----11---------11------12-12--[x2]-|
|-9----------9----------------------|
|-----------------------------------|

This riff is repeated several times in the song.
Tap to rate this tab
# A B C D E F G H I J K L M N O P Q R S T U V W X Y Z